  0
SECTION
  2
HEADER
  9
$ACADVER
  1
AC1018
  9
$ACADMAINTVER
 70
     0
  9
$DWGCODEPAGE
  3
ANSI_1252
  9
$INSBASE
 10
0.0
 20
0.0
 30
0.0
  9
$EXTMIN
 10
-32.50000000000002
 20
-55.20000000000002
 30
-7.999999999999986
  9
$EXTMAX
 10
32.5
 20
32.50000000000003
 30
67.00000000000009
  9
$LIMMIN
 10
0.0
 20
0.0
  9
$LIMMAX
 10
12.0
 20
9.0
  9
$ORTHOMODE
 70
     0
  9
$REGENMODE
 70
     1
  9
$FILLMODE
 70
     1
  9
$QTEXTMODE
 70
     0
  9
$MIRRTEXT
 70
     1
  9
$LTSCALE
 40
1.0
  9
$ATTMODE
 70
     1
  9
$TEXTSIZE
 40
0.2
  9
$TRACEWID
 40
0.05
  9
$TEXTSTYLE
  7
Standard
  9
$CLAYER
  8
Default
  9
$CELTYPE
  6
ByLayer
  9
$CECOLOR
 62
   256
  9
$CELTSCALE
 40
1.0
  9
$DISPSILH
 70
     0
  9
$DIMSCALE
 40
1.0
  9
$DIMASZ
 40
0.18
  9
$DIMEXO
 40
0.0625
  9
$DIMDLI
 40
0.38
  9
$DIMRND
 40
0.0
  9
$DIMDLE
 40
0.0
  9
$DIMEXE
 40
0.18
  9
$DIMTP
 40
0.0
  9
$DIMTM
 40
0.0
  9
$DIMTXT
 40
0.18
  9
$DIMCEN
 40
0.09
  9
$DIMTSZ
 40
0.0
  9
$DIMTOL
 70
     0
  9
$DIMLIM
 70
     0
  9
$DIMTIH
 70
     1
  9
$DIMTOH
 70
     1
  9
$DIMSE1
 70
     0
  9
$DIMSE2
 70
     0
  9
$DIMTAD
 70
     0
  9
$DIMZIN
 70
     0
  9
$DIMBLK
  1

  9
$DIMASO
 70
     1
  9
$DIMSHO
 70
     1
  9
$DIMPOST
  1

  9
$DIMAPOST
  1

  9
$DIMALT
 70
     0
  9
$DIMALTD
 70
     2
  9
$DIMALTF
 40
25.4
  9
$DIMLFAC
 40
1.0
  9
$DIMTOFL
 70
     0
  9
$DIMTVP
 40
0.0
  9
$DIMTIX
 70
     0
  9
$DIMSOXD
 70
     0
  9
$DIMSAH
 70
     0
  9
$DIMBLK1
  1

  9
$DIMBLK2
  1

  9
$DIMSTYLE
  2
Standard
  9
$DIMCLRD
 70
     0
  9
$DIMCLRE
 70
     0
  9
$DIMCLRT
 70
     0
  9
$DIMTFAC
 40
1.0
  9
$DIMGAP
 40
0.09
  9
$DIMJUST
 70
     0
  9
$DIMSD1
 70
     0
  9
$DIMSD2
 70
     0
  9
$DIMTOLJ
 70
     1
  9
$DIMTZIN
 70
     0
  9
$DIMALTZ
 70
     0
  9
$DIMALTTZ
 70
     0
  9
$DIMUPT
 70
     0
  9
$DIMDEC
 70
     4
  9
$DIMTDEC
 70
     4
  9
$DIMALTU
 70
     2
  9
$DIMALTTD
 70
     2
  9
$DIMTXSTY
  7
Standard
  9
$DIMAUNIT
 70
     0
  9
$DIMADEC
 70
     0
  9
$DIMALTRND
 40
0.0
  9
$DIMAZIN
 70
     0
  9
$DIMDSEP
 70
    46
  9
$DIMATFIT
 70
     3
  9
$DIMFRAC
 70
     0
  9
$DIMLDRBLK
  1

  9
$DIMLUNIT
 70
     2
  9
$DIMLWD
 70
    -2
  9
$DIMLWE
 70
    -2
  9
$DIMTMOVE
 70
     2
  9
$LUNITS
 70
     2
  9
$LUPREC
 70
     3
  9
$SKETCHINC
 40
0.1
  9
$FILLETRAD
 40
0.5
  9
$AUNITS
 70
     0
  9
$AUPREC
 70
     0
  9
$MENU
  1
.
  9
$ELEVATION
 40
0.0
  9
$PELEVATION
 40
0.0
  9
$THICKNESS
 40
0.0
  9
$LIMCHECK
 70
     0
  9
$CHAMFERA
 40
0.0
  9
$CHAMFERB
 40
0.0
  9
$CHAMFERC
 40
0.0
  9
$CHAMFERD
 40
0.0
  9
$SKPOLY
 70
     0
  9
$TDCREATE
 40
2458105.715117697
  9
$TDUCREATE
 40
2458105.67345103
  9
$TDUPDATE
 40
2458105.715132685
  9
$TDUUPDATE
 40
2458105.673466018
  9
$TDINDWG
 40
0.0000000116
  9
$TDUSRTIMER
 40
0.0000000116
  9
$USRTIMER
 70
     1
  9
$ANGBASE
 50
0.0
  9
$ANGDIR
 70
     0
  9
$PDMODE
 70
     0
  9
$PDSIZE
 40
0.0
  9
$PLINEWID
 40
0.0
  9
$SPLFRAME
 70
     0
  9
$SPLINETYPE
 70
     6
  9
$SPLINESEGS
 70
     8
  9
$HANDSEED
  5
23F
  9
$SURFTAB1
 70
     6
  9
$SURFTAB2
 70
     6
  9
$SURFTYPE
 70
     6
  9
$SURFU
 70
     6
  9
$SURFV
 70
     6
  9
$UCSBASE
  2

  9
$UCSNAME
  2

  9
$UCSORG
 10
0.0
 20
0.0
 30
0.0
  9
$UCSXDIR
 10
1.0
 20
0.0
 30
0.0
  9
$UCSYDIR
 10
0.0
 20
1.0
 30
0.0
  9
$UCSORTHOREF
  2

  9
$UCSORTHOVIEW
 70
     0
  9
$UCSORGTOP
 10
0.0
 20
0.0
 30
0.0
  9
$UCSORGBOTTOM
 10
0.0
 20
0.0
 30
0.0
  9
$UCSORGLEFT
 10
0.0
 20
0.0
 30
0.0
  9
$UCSORGRIGHT
 10
0.0
 20
0.0
 30
0.0
  9
$UCSORGFRONT
 10
0.0
 20
0.0
 30
0.0
  9
$UCSORGBACK
 10
0.0
 20
0.0
 30
0.0
  9
$PUCSBASE
  2

  9
$PUCSNAME
  2

  9
$PUCSORG
 10
0.0
 20
0.0
 30
0.0
  9
$PUCSXDIR
 10
1.0
 20
0.0
 30
0.0
  9
$PUCSYDIR
 10
0.0
 20
1.0
 30
0.0
  9
$PUCSORTHOREF
  2

  9
$PUCSORTHOVIEW
 70
     0
  9
$PUCSORGTOP
 10
0.0
 20
0.0
 30
0.0
  9
$PUCSORGBOTTOM
 10
0.0
 20
0.0
 30
0.0
  9
$PUCSORGLEFT
 10
0.0
 20
0.0
 30
0.0
  9
$PUCSORGRIGHT
 10
0.0
 20
0.0
 30
0.0
  9
$PUCSORGFRONT
 10
0.0
 20
0.0
 30
0.0
  9
$PUCSORGBACK
 10
0.0
 20
0.0
 30
0.0
  9
$USERI1
 70
     0
  9
$USERI2
 70
     0
  9
$USERI3
 70
     0
  9
$USERI4
 70
     0
  9
$USERI5
 70
     0
  9
$USERR1
 40
0.0
  9
$USERR2
 40
0.0
  9
$USERR3
 40
0.0
  9
$USERR4
 40
0.0
  9
$USERR5
 40
0.0
  9
$WORLDVIEW
 70
     1
  9
$SHADEDGE
 70
     3
  9
$SHADEDIF
 70
    70
  9
$TILEMODE
 70
     1
  9
$MAXACTVP
 70
    64
  9
$PINSBASE
 10
0.0
 20
0.0
 30
0.0
  9
$PLIMCHECK
 70
     0
  9
$PEXTMIN
 10
1.000000000000000E+20
 20
1.000000000000000E+20
 30
1.000000000000000E+20
  9
$PEXTMAX
 10
-1.000000000000000E+20
 20
-1.000000000000000E+20
 30
-1.000000000000000E+20
  9
$PLIMMIN
 10
0.0
 20
0.0
  9
$PLIMMAX
 10
12.0
 20
9.0
  9
$UNITMODE
 70
     0
  9
$VISRETAIN
 70
     1
  9
$PLINEGEN
 70
     0
  9
$PSLTSCALE
 70
     1
  9
$TREEDEPTH
 70
  3020
  9
$CMLSTYLE
  2
Standard
  9
$CMLJUST
 70
     0
  9
$CMLSCALE
 40
1.0
  9
$PROXYGRAPHICS
 70
     1
  9
$MEASUREMENT
 70
     0
  9
$CELWEIGHT
370
    -1
  9
$ENDCAPS
280
     0
  9
$JOINSTYLE
280
     0
  9
$LWDISPLAY
290
     0
  9
$INSUNITS
 70
     4
  9
$HYPERLINKBASE
  1

  9
$STYLESHEET
  1

  9
$XEDIT
290
     1
  9
$CEPSNTYPE
380
     0
  9
$PSTYLEMODE
290
     1
  9
$FINGERPRINTGUID
  2
{1E219B49-333B-4C3B-BF0A-4DBE98FD107F}
  9
$VERSIONGUID
  2
{FAEB1C32-E019-11D5-929B-00C0DF256EC4}
  9
$EXTNAMES
290
     1
  9
$PSVPSCALE
 40
0.0
  9
$OLESTARTUP
290
     0
  9
$SORTENTS
280
   127
  9
$INDEXCTL
280
     0
  9
$HIDETEXT
280
     1
  9
$XCLIPFRAME
290
     0
  9
$HALOGAP
280
     0
  9
$OBSCOLOR
 70
   257
  9
$OBSLTYPE
280
     0
  9
$INTERSECTIONDISPLAY
280
     0
  9
$INTERSECTIONCOLOR
 70
   257
  9
$DIMASSOC
280
     2
  9
$PROJECTNAME
  1

  0
ENDSEC
  0
SECTION
  2
CLASSES
  0
CLASS
  1
ACDBDICTIONARYWDFLT
  2
AcDbDictionaryWithDefault
  3
ObjectDBX Classes
 90
        0
 91
        4
280
     0
281
     0
  0
CLASS
  1
VISUALSTYLE
  2
AcDbVisualStyle
  3
ObjectDBX Classes
 90
     4095
 91
        4
280
     0
281
     0
  0
CLASS
  1
MATERIAL
  2
AcDbMaterial
  3
ObjectDBX Classes
 90
     1153
 91
        4
280
     0
281
     0
  0
CLASS
  1
SCALE
  2
AcDbScale
  3
ObjectDBX Classes
 90
     1153
 91
        4
280
     0
281
     0
  0
CLASS
  1
SUN
  2
AcDbSun
  3
SCENEOE
 90
     1153
 91
        4
280
     0
281
     0
  0
CLASS
  1
DICTIONARYVAR
  2
AcDbDictionaryVar
  3
ObjectDBX Classes
 90
        0
 91
        4
280
     0
281
     0
  0
ENDSEC
  0
SECTION
  2
TABLES
  0
TABLE
  2
VPORT
  5
8
330
0
100
AcDbSymbolTable
 70
     1
  0
VPORT
  5
29
330
8
100
AcDbSymbolTableRecord
100
AcDbViewportTableRecord
  2
*Active
 70
     0
 10
0.0
 20
0.0
 11
1.0
 21
1.0
 12
-0.0000000000000071
 22
-11.35
 13
0.0
 23
0.0
 14
0.5
 24
0.5
 15
0.5
 25
0.5
 16
0.0
 26
0.0
 36
1.0
 17
0.0
 27
0.0
 37
0.0
 40
89.45400000000004
 41
0.7411630558722919
 42
50.0
 43
0.0
 44
0.0
 50
0.0
 51
0.0
 71
     0
 72
   100
 73
     1
 74
     3
 75
     0
 76
     0
 77
     0
 78
     0
281
     0
 65
     1
110
0.0
120
0.0
130
0.0
111
1.0
121
0.0
131
0.0
112
0.0
122
1.0
132
0.0
 79
     0
146
0.0
  0
ENDTAB
  0
TABLE
  2
LTYPE
  5
5
330
0
100
AcDbSymbolTable
 70
     1
  0
LTYPE
  5
14
330
5
100
AcDbSymbolTableRecord
100
AcDbLinetypeTableRecord
  2
ByBlock
 70
     0
  3

 72
    65
 73
     0
 40
0.0
  0
LTYPE
  5
15
330
5
100
AcDbSymbolTableRecord
100
AcDbLinetypeTableRecord
  2
ByLayer
 70
     0
  3

 72
    65
 73
     0
 40
0.0
  0
LTYPE
  5
16
330
5
100
AcDbSymbolTableRecord
100
AcDbLinetypeTableRecord
  2
Continuous
 70
     0
  3
Solid line
 72
    65
 73
     0
 40
0.0
  0
ENDTAB
  0
TABLE
  2
LAYER
  5
2
330
0
100
AcDbSymbolTable
 70
     2
  0
LAYER
  5
10
330
2
100
AcDbSymbolTableRecord
100
AcDbLayerTableRecord
  2
0
 70
     0
 62
     7
  6
Continuous
370
    -3
390
F
  0
LAYER
  5
6A
330
2
100
AcDbSymbolTableRecord
100
AcDbLayerTableRecord
  2
Default
 70
     0
 62
    18
420
        0
  6
Continuous
370
    -3
390
F
  0
ENDTAB
  0
TABLE
  2
STYLE
  5
3
330
0
100
AcDbSymbolTable
 70
     1
  0
STYLE
  5
11
330
3
100
AcDbSymbolTableRecord
100
AcDbTextStyleTableRecord
  2
Standard
 70
     0
 40
0.0
 41
1.0
 50
0.0
 71
     0
 42
0.2
  3
txt
  4

  0
ENDTAB
  0
TABLE
  2
VIEW
  5
6
330
0
100
AcDbSymbolTable
 70
     0
  0
ENDTAB
  0
TABLE
  2
UCS
  5
7
330
0
100
AcDbSymbolTable
 70
     0
  0
ENDTAB
  0
TABLE
  2
APPID
  5
9
330
0
100
AcDbSymbolTable
 70
     1
  0
APPID
  5
12
330
9
100
AcDbSymbolTableRecord
100
AcDbRegAppTableRecord
  2
ACAD
 70
     0
  0
ENDTAB
  0
TABLE
  2
DIMSTYLE
  5
A
330
0
100
AcDbSymbolTable
 70
     1
100
AcDbDimStyleTable
  0
DIMSTYLE
105
27
330
A
100
AcDbSymbolTableRecord
100
AcDbDimStyleTableRecord
  2
Standard
 70
     0
178
     0
340
11
  0
ENDTAB
  0
TABLE
  2
BLOCK_RECORD
  5
1
330
0
100
AcDbSymbolTable
 70
     9
  0
BLOCK_RECORD
  5
1F
330
1
100
AcDbSymbolTableRecord
100
AcDbBlockTableRecord
  2
*Model_Space
340
22
  0
BLOCK_RECORD
  5
1B
330
1
100
AcDbSymbolTableRecord
100
AcDbBlockTableRecord
  2
*Paper_Space
340
1E
  0
BLOCK_RECORD
  5
23
330
1
100
AcDbSymbolTableRecord
100
AcDbBlockTableRecord
  2
*Paper_Space0
340
26
  0
BLOCK_RECORD
  5
6B
330
1
100
AcDbSymbolTableRecord
100
AcDbBlockTableRecord
  2
3300Y407-A0
340
0
102
{BLKREFS
331
201
102
}
  0
BLOCK_RECORD
  5
6C
330
1
100
AcDbSymbolTableRecord
100
AcDbBlockTableRecord
  2
10CA21160YY
340
0
102
{BLKREFS
331
A6
102
}
  0
BLOCK_RECORD
  5
A7
330
1
100
AcDbSymbolTableRecord
100
AcDbBlockTableRecord
  2
10MA07960YY
340
0
102
{BLKREFS
331
108
102
}
  0
BLOCK_RECORD
  5
109
330
1
100
AcDbSymbolTableRecord
100
AcDbBlockTableRecord
  2
10BO11360YY
340
0
102
{BLKREFS
331
158
102
}
  0
BLOCK_RECORD
  5
159
330
1
100
AcDbSymbolTableRecord
100
AcDbBlockTableRecord
  2
10OR19860YY
340
0
102
{BLKREFS
331
164
102
}
  0
BLOCK_RECORD
  5
165
330
1
100
AcDbSymbolTableRecord
100
AcDbBlockTableRecord
  2
10LE03860YY
340
0
102
{BLKREFS
331
188
102
}
  0
BLOCK_RECORD
  5
189
330
1
100
AcDbSymbolTableRecord
100
AcDbBlockTableRecord
  2
10VI0826000
340
0
102
{BLKREFS
331
1C8
102
}
  0
BLOCK_RECORD
  5
1C9
330
1
100
AcDbSymbolTableRecord
100
AcDbBlockTableRecord
  2
10IN10360YY
340
0
102
{BLKREFS
331
1FE
102
}
  0
ENDTAB
  0
ENDSEC
  0
SECTION
  2
BLOCKS
  0
BLOCK
  5
20
330
1F
100
AcDbEntity
  8
0
100
AcDbBlockBegin
  2
*Model_Space
 70
     0
 10
0.0
 20
0.0
 30
0.0
  3
*Model_Space
  1
*Model_Space
  0
ENDBLK
  5
21
330
1F
100
AcDbEntity
  8
0
100
AcDbBlockEnd
  0
BLOCK
  5
1C
330
1B
100
AcDbEntity
 67
     1
  8
0
100
AcDbBlockBegin
  2
*Paper_Space
 70
     0
 10
0.0
 20
0.0
 30
0.0
  3
*Paper_Space
  1
*Paper_Space
  0
ENDBLK
  5
1D
330
1B
100
AcDbEntity
 67
     1
  8
0
100
AcDbBlockEnd
  0
BLOCK
  5
24
330
23
100
AcDbEntity
  8
0
100
AcDbBlockBegin
  2
*Paper_Space0
 70
     0
 10
0.0
 20
0.0
 30
0.0
  3
*Paper_Space0
  1
*Paper_Space0
  0
ENDBLK
  5
25
330
23
100
AcDbEntity
  8
0
100
AcDbBlockEnd
  0
BLOCK
  5
1FF
330
6B
100
AcDbEntity
  8
0
100
AcDbBlockBegin
  2
3300Y407-A0
 70
     0
 10
0.0
 20
0.0
 30
0.0
  3
3300Y407-A0
  1
3300Y407-A0
  0
INSERT
  5
A6
330
6B
100
AcDbEntity
  8
Default
100
AcDbBlockReference
  2
10CA21160YY
 10
-0.0000000000000407
 20
7.99999999999997
 30
-0.0000000000000213
 50
360.0
210
-1.276756478318930E-15
220
1.0
230
-4.429752960767590E-16
  0
INSERT
  5
108
330
6B
100
AcDbEntity
  8
Default
100
AcDbBlockReference
  2
10MA07960YY
 10
0.0000000000001569
 20
0.0000000000000684
 30
33.9999999999999
 50
180.0000000000001
210
5.305247803741180E-15
220
-3.080962076860120E-15
230
-1.0
  0
INSERT
  5
158
330
6B
100
AcDbEntity
  8
Default
100
AcDbBlockReference
  2
10BO11360YY
 10
49.99999999999989
 20
-0.000000000000008
 30
3.000000000000045
 50
0.0000000000000159
210
-1.304165387408390E-15
220
-5.904114563247890E-16
230
-1.0
  0
INSERT
  5
164
330
6B
100
AcDbEntity
  8
Default
100
AcDbBlockReference
  2
10OR19860YY
 10
0.0000000000000464
 20
-0.0000000000000263
 30
-5.99999999999999
 50
359.9999999999999
  0
INSERT
  5
188
330
6B
100
AcDbEntity
  8
Default
100
AcDbBlockReference
  2
10LE03860YY
 10
-0.0000000000000476
 20
-57.49999999999994
 30
-55.20000000000028
 50
359.9999999999999
210
1.0
220
-1.066073693074560E-15
230
4.757766999697420E-15
  0
INSERT
  5
1C8
330
6B
100
AcDbEntity
  8
Default
100
AcDbBlockReference
  2
10VI0826000
 10
0.0000000000000322
 20
-57.49999999999994
 30
10.70000000000029
 50
180.0
210
-1.0
220
5.833710544924270E-16
230
-5.032454373263390E-15
  0
INSERT
  5
1FE
330
6B
100
AcDbEntity
  8
Default
100
AcDbBlockReference
  2
10IN10360YY
 10
0.0000000000000174
 20
-0.0000000000000455
 30
-60.9999999999999
 50
270.0000000000001
  0
ENDBLK
  5
200
330
6B
100
AcDbEntity
  8
0
100
AcDbBlockEnd
  0
BLOCK
  5
A4
330
6C
100
AcDbEntity
  8
0
100
AcDbBlockBegin
  2
10CA21160YY
 70
     0
 10
0.0
 20
0.0
 30
0.0
  3
10CA21160YY
  1
10CA21160YY
  0
ARC
  5
6D
330
6C
100
AcDbEntity
  8
Default
100
AcDbCircle
 10
0.0
 20
0.0
 30
-0.0000000000001137
 40
21.2
210
-5.953667209215183E-31
220
1.0
230
-5.027425017170521E-15
100
AcDbArc
 50
90.00000000000001
 51
180.0
  0
ARC
  5
6E
330
6C
100
AcDbEntity
  8
Default
100
AcDbCircle
 10
0.0000000000000036
 20
0.0000000000000036
 30
0.0
 40
21.2
210
1.823310582822150E-30
220
1.0
230
3.351616678113662E-16
100
AcDbArc
 50
0.0000000000000096
 51
90.00000000000001
  0
ARC
  5
6F
330
6C
100
AcDbEntity
  8
Default
100
AcDbCircle
 10
0.0
 20
0.0000000000000018
 30
-41.0
 40
21.2
210
0.0
220
1.0
230
0.0
100
AcDbArc
 50
270.0
 51
90.0
  0
ARC
  5
70
330
6C
100
AcDbEntity
  8
Default
100
AcDbCircle
 10
0.0
 20
0.0000000000000018
 30
-41.0
 40
21.2
210
0.0
220
1.0
230
0.0
100
AcDbArc
 50
90.0
 51
270.0
  0
LINE
  5
71
330
6C
100
AcDbEntity
  8
Default
100
AcDbLine
 10
0.000000000000001
 20
-41.0
 30
21.2
 11
0.0
 21
-0.0000000000000071
 31
21.2
  0
ARC
  5
72
330
6C
100
AcDbEntity
  8
Default
100
AcDbCircle
 10
0.0
 20
-0.0000000000000036
 30
-0.0000000000000568
 40
21.2
210
2.681293342490945E-15
220
1.0
230
-1.039001170215241E-14
100
AcDbArc
 50
180.0
 51
0.0000000000000026
  0
ARC
  5
73
330
6C
100
AcDbEntity
  8
Default
100
AcDbCircle
 10
0.0
 20
0.0000000000000071
 30
-7.999999999999989
 40
11.4585
210
0.0
220
1.0
230
0.0
100
AcDbArc
 50
270.0
 51
90.0
  0
ARC
  5
74
330
6C
100
AcDbEntity
  8
Default
100
AcDbCircle
 10
0.0
 20
0.0000000000000071
 30
-7.999999999999989
 40
11.4585
210
0.0
220
1.0
230
0.0
100
AcDbArc
 50
90.0
 51
270.0
  0
ARC
  5
75
330
6C
100
AcDbEntity
  8
Default
100
AcDbCircle
 10
0.0
 20
0.0000000000000071
 30
0.0000000000000001
 40
11.4585
210
0.0
220
1.0
230
9.689078191954945E-19
100
AcDbArc
 50
90.00000000000001
 51
270.0
  0
ARC
  5
76
330
6C
100
AcDbEntity
  8
Default
100
AcDbCircle
 10
0.0
 20
0.0000000000000071
 30
0.0000000000000001
 40
11.4585
210
0.0
220
1.0
230
9.689078191954945E-19
100
AcDbArc
 50
270.0
 51
90.0
  0
LINE
  5
77
330
6C
100
AcDbEntity
  8
Default
100
AcDbLine
 10
-0.0000000000000006
 20
0.0000000000000001
 30
-11.45849999999999
 11
0.0000000000000006
 21
-7.999999999999989
 31
-11.45849999999999
  0
ARC
  5
78
330
6C
100
AcDbEntity
  8
Default
100
AcDbCircle
 10
0.0
 20
0.0
 30
-7.999999999999991
 40
18.5
210
0.0
220
1.0
230
0.0
100
AcDbArc
 50
180.0
 51
270.0
  0
ARC
  5
79
330
6C
100
AcDbEntity
  8
Default
100
AcDbCircle
 10
0.0
 20
0.0
 30
-7.999999999999991
 40
18.5
210
0.0
220
1.0
230
0.0
100
AcDbArc
 50
0.0
 51
180.0
  0
ARC
  5
7A
330
6C
100
AcDbEntity
  8
Default
100
AcDbCircle
 10
0.0
 20
0.0
 30
-46.0
 40
18.5
210
0.0
220
1.0
230
0.0
100
AcDbArc
 50
270.0
 51
0.0
  0
ARC
  5
7B
330
6C
100
AcDbEntity
  8
Default
100
AcDbCircle
 10
0.0
 20
0.0
 30
-46.0
 40
18.5
210
0.0
220
1.0
230
0.0
100
AcDbArc
 50
180.0
 51
270.0
  0
LINE
  5
7C
330
6C
100
AcDbEntity
  8
Default
100
AcDbLine
 10
0.0
 20
-7.999999999999991
 30
-18.5
 11
0.0
 21
-46.0
 31
-18.5
  0
ARC
  5
7D
330
6C
100
AcDbEntity
  8
Default
100
AcDbCircle
 10
0.0
 20
0.0
 30
-7.999999999999991
 40
18.5
210
0.0
220
1.0
230
0.0
100
AcDbArc
 50
270.0
 51
0.0
  0
ARC
  5
7E
330
6C
100
AcDbEntity
  8
Default
100
AcDbCircle
 10
0.0
 20
0.0
 30
-46.0
 40
18.5
210
0.0
220
1.0
230
0.0
100
AcDbArc
 50
0.000000000000007
 51
180.0
  0
ARC
  5
7F
330
6C
100
AcDbEntity
  8
Default
100
AcDbCircle
 10
0.0
 20
0.0
 30
-41.0
 40
19.75
210
0.0
220
1.0
230
0.0
100
AcDbArc
 50
270.0
 51
90.0
  0
ARC
  5
80
330
6C
100
AcDbEntity
  8
Default
100
AcDbCircle
 10
0.0
 20
0.0
 30
-41.0
 40
19.75
210
0.0
220
1.0
230
0.0
100
AcDbArc
 50
90.00000000000001
 51
270.0
  0
ARC
  5
81
330
6C
100
AcDbEntity
  8
Default
100
AcDbCircle
 10
0.0
 20
0.0
 30
-46.0
 40
19.75
210
0.0
220
1.0
230
0.0
100
AcDbArc
 50
90.0
 51
270.0
  0
ARC
  5
82
330
6C
100
AcDbEntity
  8
Default
100
AcDbCircle
 10
0.0
 20
0.0
 30
-46.0
 40
19.75
210
0.0
220
1.0
230
0.0
100
AcDbArc
 50
270.0
 51
90.0
  0
LINE
  5
83
330
6C
100
AcDbEntity
  8
Default
100
AcDbLine
 10
0.000000000000001
 20
-41.0
 30
-19.75
 11
0.000000000000001
 21
-46.0
 31
-19.75
  0
CIRCLE
  5
84
330
6C
100
AcDbEntity
  8
Default
100
AcDbCircle
 10
0.0
 20
0.0
 30
-20.5
 40
21.2
210
0.0
220
1.0
230
0.0
  0
LINE
  5
85
330
6C
100
AcDbEntity
  8
Default
100
AcDbLine
 10
21.2
 20
-41.0
 30
0.0
 11
21.2
 21
-0.0000000000000089
 31
0.0
  0
LINE
  5
86
330
6C
100
AcDbEntity
  8
Default
100
AcDbLine
 10
0.0
 20
-41.0
 30
-21.2
 11
0.0
 21
-0.0000000000000089
 31
-21.2
  0
LINE
  5
87
330
6C
100
AcDbEntity
  8
Default
100
AcDbLine
 10
-21.2
 20
-41.0
 30
0.0
 11
-21.2
 21
-0.0000000000000089
 31
0.0
  0
LINE
  5
88
330
6C
100
AcDbEntity
  8
Default
100
AcDbLine
 10
-0.0000000000000018
 20
-46.0
 30
-19.75
 11
-0.0000000000000018
 21
-46.0
 31
-18.5
  0
LINE
  5
89
330
6C
100
AcDbEntity
  8
Default
100
AcDbLine
 10
-0.0000000000000018
 20
-46.0
 30
18.50000000000001
 11
-0.0000000000000018
 21
-46.0
 31
19.75
  0
LINE
  5
8A
330
6C
100
AcDbEntity
  8
Default
100
AcDbLine
 10
-19.75
 20
-46.0
 30
-0.0000000000000018
 11
-18.5
 21
-46.0
 31
-0.0000000000000018
  0
LINE
  5
8B
330
6C
100
AcDbEntity
  8
Default
100
AcDbLine
 10
18.49999999999999
 20
-46.0
 30
-0.0000000000000018
 11
19.74999999999999
 21
-46.0
 31
-0.0000000000000018
  0
LINE
  5
8C
330
6C
100
AcDbEntity
  8
Default
100
AcDbLine
 10
-0.0000000000000018
 20
0.0
 30
-21.2
 11
-0.0000000000000018
 21
0.0
 31
-11.45849999999999
  0
LINE
  5
8D
330
6C
100
AcDbEntity
  8
Default
100
AcDbLine
 10
-0.0000000000000018
 20
0.0
 30
11.45850000000001
 11
-0.0000000000000018
 21
0.0
 31
21.19999999999999
  0
LINE
  5
8E
330
6C
100
AcDbEntity
  8
Default
100
AcDbLine
 10
-21.2
 20
0.0
 30
0.0000000000000018
 11
-11.4585
 21
0.0
 31
0.0000000000000018
  0
LINE
  5
8F
330
6C
100
AcDbEntity
  8
Default
100
AcDbLine
 10
11.4585
 20
0.0
 30
0.0000000000000018
 11
21.20000000000001
 21
0.0
 31
0.0000000000000018
  0
CIRCLE
  5
90
330
6C
100
AcDbEntity
  8
Default
100
AcDbCircle
 10
0.0
 20
0.0000000000000073
 30
-3.999999999999995
 40
11.4585
210
0.0
220
1.0
230
0.0
  0
LINE
  5
91
330
6C
100
AcDbEntity
  8
Default
100
AcDbLine
 10
11.4585
 20
0.0000000000000003
 30
0.0000000000000073
 11
11.4585
 21
-7.999999999999988
 31
0.0000000000000073
  0
LINE
  5
92
330
6C
100
AcDbEntity
  8
Default
100
AcDbLine
 10
0.0
 20
0.0000000000000003
 30
11.45850000000001
 11
0.0
 21
-7.999999999999988
 31
11.45850000000001
  0
LINE
  5
93
330
6C
100
AcDbEntity
  8
Default
100
AcDbLine
 10
-11.4585
 20
0.0000000000000003
 30
0.0000000000000073
 11
-11.4585
 21
-7.999999999999988
 31
0.0000000000000073
  0
LINE
  5
94
330
6C
100
AcDbEntity
  8
Default
100
AcDbLine
 10
-0.0000000000000018
 20
-7.99999999999999
 30
-18.5
 11
-0.0000000000000018
 21
-7.99999999999999
 31
-11.4585
  0
LINE
  5
95
330
6C
100
AcDbEntity
  8
Default
100
AcDbLine
 10
-0.0000000000000018
 20
-7.99999999999999
 30
11.45850000000001
 11
-0.0000000000000018
 21
-7.99999999999999
 31
18.5
  0
LINE
  5
96
330
6C
100
AcDbEntity
  8
Default
100
AcDbLine
 10
-18.5
 20
-7.99999999999999
 30
0.0000000000000018
 11
-11.4585
 21
-7.99999999999999
 31
0.0000000000000018
  0
LINE
  5
97
330
6C
100
AcDbEntity
  8
Default
100
AcDbLine
 10
11.4585
 20
-7.99999999999999
 30
0.0000000000000018
 11
18.5
 21
-7.99999999999999
 31
0.0000000000000018
  0
CIRCLE
  5
98
330
6C
100
AcDbEntity
  8
Default
100
AcDbCircle
 10
0.0
 20
0.0
 30
-27.0
 40
18.5
210
0.0
220
1.0
230
0.0
  0
LINE
  5
99
330
6C
100
AcDbEntity
  8
Default
100
AcDbLine
 10
18.5
 20
-7.999999999999989
 30
0.0
 11
18.5
 21
-46.0
 31
0.0
  0
LINE
  5
9A
330
6C
100
AcDbEntity
  8
Default
100
AcDbLine
 10
0.0
 20
-7.999999999999989
 30
18.5
 11
0.0
 21
-46.0
 31
18.5
  0
LINE
  5
9B
330
6C
100
AcDbEntity
  8
Default
100
AcDbLine
 10
-18.5
 20
-7.999999999999989
 30
0.0
 11
-18.5
 21
-46.0
 31
0.0
  0
CIRCLE
  5
9C
330
6C
100
AcDbEntity
  8
Default
100
AcDbCircle
 10
0.0
 20
-0.0000000000000009
 30
-43.5
 40
19.75
210
0.0
220
1.0
230
0.0
  0
LINE
  5
9D
330
6C
100
AcDbEntity
  8
Default
100
AcDbLine
 10
19.75
 20
-41.0
 30
-0.0000000000000009
 11
19.75
 21
-46.00000000000001
 31
-0.0000000000000009
  0
LINE
  5
9E
330
6C
100
AcDbEntity
  8
Default
100
AcDbLine
 10
0.0
 20
-41.0
 30
19.75
 11
0.0
 21
-46.00000000000001
 31
19.75
  0
LINE
  5
9F
330
6C
100
AcDbEntity
  8
Default
100
AcDbLine
 10
-19.75
 20
-41.0
 30
-0.0000000000000009
 11
-19.75
 21
-46.00000000000001
 31
-0.0000000000000009
  0
LINE
  5
A0
330
6C
100
AcDbEntity
  8
Default
100
AcDbLine
 10
-0.0000000000000018
 20
-41.0
 30
21.2
 11
-0.0000000000000018
 21
-41.0
 31
19.75
  0
LINE
  5
A1
330
6C
100
AcDbEntity
  8
Default
100
AcDbLine
 10
-0.0000000000000018
 20
-41.0
 30
-19.75
 11
-0.0000000000000018
 21
-41.0
 31
-21.2
  0
LINE
  5
A2
330
6C
100
AcDbEntity
  8
Default
100
AcDbLine
 10
-21.2
 20
-41.0
 30
0.0000000000000018
 11
-19.75
 21
-41.0
 31
0.0000000000000018
  0
LINE
  5
A3
330
6C
100
AcDbEntity
  8
Default
100
AcDbLine
 10
19.75
 20
-41.0
 30
0.0000000000000018
 11
21.2
 21
-41.0
 31
0.0000000000000018
  0
ENDBLK
  5
A5
330
6C
100
AcDbEntity
  8
0
100
AcDbBlockEnd
  0
BLOCK
  5
106
330
A7
100
AcDbEntity
  8
0
100
AcDbBlockBegin
  2
10MA07960YY
 70
     0
 10
0.0
 20
0.0
 30
0.0
  3
10MA07960YY
  1
10MA07960YY
  0
ARC
  5
A8
330
A7
100
AcDbEntity
  8
Default
100
AcDbCircle
 10
0.0
 20
0.0
 30
33.0
 40
21.2
100
AcDbArc
 50
0.000000000000007
 51
180.0
  0
ARC
  5
A9
330
A7
100
AcDbEntity
  8
Default
100
AcDbCircle
 10
-0.0000000000000018
 20
0.0
 30
33.0
 40
21.2
100
AcDbArc
 50
180.0
 51
0.0
  0
ARC
  5
AA
330
A7
100
AcDbEntity
  8
Default
100
AcDbCircle
 10
0.0000000000000036
 20
0.0
 30
0.0000000000000017
 40
21.2
100
AcDbArc
 50
180.0
 51
0.0
  0
ARC
  5
AB
330
A7
100
AcDbEntity
  8
Default
100
AcDbCircle
 10
0.0000000000000036
 20
0.0
 30
0.0000000000000017
 40
21.2
100
AcDbArc
 50
0.000000000000007
 51
180.0
  0
LINE
  5
AC
330
A7
100
AcDbEntity
  8
Default
100
AcDbLine
 10
-21.2
 20
0.0
 30
20.39999990767917
 11
-21.2
 21
-0.000000000000001
 31
0.0000000000000032
  0
LINE
  5
AD
330
A7
100
AcDbEntity
  8
Default
100
AcDbLine
 10
-21.2
 20
-0.000000000000001
 30
33.0
 11
-21.2
 21
0.0000000000000001
 31
26.6
  0
ARC
  5
AE
330
A7
100
AcDbEntity
  8
Default
100
AcDbCircle
 10
0.0000000000000027
 20
0.0
 30
14.0
 40
10.0
100
AcDbArc
 50
0.0
 51
180.0
  0
ARC
  5
AF
330
A7
100
AcDbEntity
  8
Default
100
AcDbCircle
 10
0.0000000000000027
 20
0.0
 30
14.0
 40
10.0
100
AcDbArc
 50
180.0
 51
0.0
  0
ARC
  5
B0
330
A7
100
AcDbEntity
  8
Default
100
AcDbCircle
 10
0.0000000000000027
 20
0.0
 30
19.0
 40
10.0
100
AcDbArc
 50
180.0
 51
0.0
  0
ARC
  5
B1
330
A7
100
AcDbEntity
  8
Default
100
AcDbCircle
 10
0.0000000000000027
 20
0.0
 30
19.0
 40
10.0
100
AcDbArc
 50
0.000000000000007
 51
180.0
  0
LINE
  5
B2
330
A7
100
AcDbEntity
  8
Default
100
AcDbLine
 10
-9.999999999999998
 20
-0.0000000000000005
 30
19.0
 11
-9.999999999999998
 21
-0.0000000000000005
 31
14.0
  0
ARC
  5
B3
330
A7
100
AcDbEntity
  8
Default
100
AcDbCircle
 10
0.0000000000000036
 20
0.0
 30
0.000000000000001
 40
20.2
100
AcDbArc
 50
0.0
 51
180.0
  0
ARC
  5
B4
330
A7
100
AcDbEntity
  8
Default
100
AcDbCircle
 10
0.0000000000000036
 20
0.0
 30
0.000000000000001
 40
20.2
100
AcDbArc
 50
180.0
 51
0.0
  0
ARC
  5
B5
330
A7
100
AcDbEntity
  8
Default
100
AcDbCircle
 10
0.0000000000000036
 20
0.0
 30
14.0
 40
20.2
100
AcDbArc
 50
180.0
 51
0.0
  0
ARC
  5
B6
330
A7
100
AcDbEntity
  8
Default
100
AcDbCircle
 10
0.0000000000000036
 20
0.0
 30
14.0
 40
20.2
100
AcDbArc
 50
0.000000000000007
 51
180.0
  0
LINE
  5
B7
330
A7
100
AcDbEntity
  8
Default
100
AcDbLine
 10
-20.2
 20
-0.000000000000001
 30
14.0
 11
-20.2
 21
-0.000000000000001
 31
-0.0000000000000048
  0
SPLINE
  5
B8
330
A7
100
AcDbEntity
  8
Default
100
AcDbSpline
 70
     0
 71
     3
 72
    10
 73
     6
 74
     0
 42
0.000000001
 43
0.0000000001
 40
-0.2500901060813396
 40
-0.2500901060813396
 40
-0.2500901060813396
 40
-0.2500901060813396
 40
-0.1250522784994081
 40
-0.1250522784994081
 40
0.0
 40
0.0
 40
0.0
 40
0.0
 10
-20.97212436873829
 20
3.1
 30
23.5
 10
-20.97212447711495
 20
3.1
 30
24.3370536025803
 10
-21.02721722286702
 20
2.761059001642671
 30
25.12295196833823
 10
-21.14550947283605
 20
1.623134039718722
 30
26.26097907408544
 10
-21.2
 20
0.8368999175867051
 30
26.6
 10
-21.2
 20
0.0000000000000001
 30
26.6
  0
SPLINE
  5
B9
330
A7
100
AcDbEntity
  8
Default
100
AcDbSpline
 70
     0
 71
     3
 72
    18
 73
    14
 74
     0
 42
0.000000001
 43
0.0000000001
 40
-1.0
 40
-1.0
 40
-1.0
 40
-1.0
 40
-0.9060980052508577
 40
-0.9060980052508577
 40
-0.8127686834931815
 40
-0.8127686834931815
 40
-0.7185908633585691
 40
-0.7185908633585691
 40
-0.6250411841684614
 40
-0.6250411841684614
 40
-0.5314839844293098
 40
-0.5314839844293098
 40
-0.5001912566824849
 40
-0.5001912566824849
 40
-0.5001912566824849
 40
-0.5001912566824849
 10
-21.2
 20
0.0000000000000001
 30
26.6
 10
-21.20000000000092
 20
-0.623960379763487
 30
26.59999999999999
 10
-21.17066788544097
 20
-1.224244927686898
 30
26.41196121933958
 10
-21.08854248757855
 20
-2.228840932263646
 30
25.73742728711559
 10
-21.0382543640383
 20
-2.625142460322551
 30
25.25794557861822
 10
-20.97398397513761
 20
-3.0975014285247
 30
24.1277116397891
 10
-20.96340564099702
 20
-3.161900310727279
 30
23.49864959442169
 10
-20.99895080367688
 20
-2.917020268839215
 30
22.28202466328396
 10
-21.04237365415489
 20
-2.617707096135414
 30
21.73368000104293
 10
-21.13090371085469
 20
-1.766521824743669
 30
20.88241579664857
 10
-21.17397519917405
 20
-1.218031860732456
 30
20.58299854311318
 10
-21.19735283722347
 20
-0.4089666503133375
 30
20.42013501365063
 10
-21.20010908473623
 20
-0.2040590330528245
 30
20.39999159754985
 10
-21.2
 20
0.0
 30
20.39999990767917
  0
ARC
  5
BA
330
A7
100
AcDbEntity
  8
Default
100
AcDbCircle
 10
-0.0000000000000004
 20
23.5
 30
-19.7
 40
3.100000000000001
210
1.0
220
0.0
230
0.0
100
AcDbArc
 50
270.0
 51
0.0
  0
ARC
  5
BB
330
A7
100
AcDbEntity
  8
Default
100
AcDbCircle
 10
0.0000000000000195
 20
23.5
 30
-19.7
 40
3.100000000000001
210
1.0
220
1.146036670580806E-15
230
0.0
100
AcDbArc
 50
0.0
 51
90.0
  0
LINE
  5
BC
330
A7
100
AcDbEntity
  8
Default
100
AcDbLine
 10
-20.97212436873829
 20
3.1
 30
23.5
 11
-19.7
 21
3.1
 31
23.5
  0
SPLINE
  5
BD
330
A7
100
AcDbEntity
  8
Default
100
AcDbSpline
 70
     0
 71
     3
 72
    12
 73
     8
 74
     0
 42
0.000000001
 43
0.0000000001
 40
-0.5001912566824849
 40
-0.5001912566824849
 40
-0.5001912566824849
 40
-0.5001912566824849
 40
-0.4373265460861699
 40
-0.4373265460861699
 40
-0.3439931192227818
 40
-0.3439931192227818
 40
-0.2500901060813396
 40
-0.2500901060813396
 40
-0.2500901060813396
 40
-0.2500901060813396
 10
-21.2
 20
0.0
 30
20.39999990767917
 10
-21.19975942806863
 20
0.4099390696230543
 30
20.40001696288012
 10
-21.18795516457986
 20
0.8164534439830295
 30
20.48136185829594
 10
-21.13468813500403
 20
1.758171592657857
 30
20.87496570164243
 10
-21.08445911040587
 20
2.237644673095329
 30
21.27140193597697
 10
-21.00189548192944
 20
2.911978727180753
 30
22.27585696303656
 10
-20.97215690823045
 20
3.100000017460267
 30
22.87594402287631
 10
-20.97212436873829
 20
3.1
 30
23.5
  0
ARC
  5
BE
330
A7
100
AcDbEntity
  8
Default
100
AcDbCircle
 10
0.0000000000000221
 20
23.49999999999999
 30
-19.70000000000001
 40
3.100000000000001
210
1.0
220
1.146036670580807E-15
230
-5.730183352904030E-16
100
AcDbArc
 50
90.0
 51
270.0
  0
SPLINE
  5
BF
330
A7
100
AcDbEntity
  8
Default
100
AcDbSpline
 70
     0
 71
     3
 72
    10
 73
     6
 74
     0
 42
0.000000001
 43
0.0000000001
 40
-1.0
 40
-1.0
 40
-1.0
 40
-1.0
 40
-0.8749639047350586
 40
-0.8749639047350586
 40
-0.7500532279894337
 40
-0.7500532279894337
 40
-0.7500532279894337
 40
-0.7500532279894337
 10
-7.099999975178624
 20
0.000000017378174
 30
25.5669998536476
 10
-7.100000967911096
 20
0.5713982131761237
 30
25.56699975252108
 10
-7.02711864575371
 20
1.085313246310363
 30
25.33815061986192
 10
-6.868591910685182
 20
1.838592038191706
 30
24.58430265873758
 10
-6.792459871991782
 20
2.066999996431764
 30
24.07214919101593
 10
-6.792459863703773
 20
2.067
 30
23.5
  0
ARC
  5
C0
330
A7
100
AcDbEntity
  8
Default
100
AcDbCircle
 10
0.0000000000000011
 20
23.5
 30
-19.7
 40
2.067
210
1.0
220
0.0
230
0.0
100
AcDbArc
 50
0.0
 51
90.00000000000001
  0
ARC
  5
C1
330
A7
100
AcDbEntity
  8
Default
100
AcDbCircle
 10
0.0000000000000008
 20
23.5
 30
-19.7
 40
2.067
210
1.0
220
0.0
230
0.0
100
AcDbArc
 50
270.0
 51
0.0
  0
LINE
  5
C2
330
A7
100
AcDbEntity
  8
Default
100
AcDbLine
 10
-19.7
 20
2.067
 30
23.5
 11
-6.792459863703773
 21
2.067
 31
23.5
  0
ARC
  5
C3
330
A7
100
AcDbEntity
  8
Default
100
AcDbCircle
 10
0.0000000000000004
 20
23.5
 30
-19.7
 40
2.067
210
1.0
220
0.0
230
0.0
100
AcDbArc
 50
90.00000000000001
 51
270.0
  0
ARC
  5
C4
330
A7
100
AcDbEntity
  8
Default
100
AcDbCircle
 10
-0.0000000000000089
 20
0.0
 30
28.0
 40
7.1
100
AcDbArc
 50
0.000000000000007
 51
180.0
  0
ARC
  5
C5
330
A7
100
AcDbEntity
  8
Default
100
AcDbCircle
 10
-0.0000000000000084
 20
0.0
 30
28.0
 40
7.1
100
AcDbArc
 50
180.0
 51
0.0
  0
ARC
  5
C6
330
A7
100
AcDbEntity
  8
Default
100
AcDbCircle
 10
-0.0000000000000084
 20
-0.0000000000000013
 30
19.0
 40
7.099999999999998
100
AcDbArc
 50
180.0
 51
270.0
  0
ARC
  5
C7
330
A7
100
AcDbEntity
  8
Default
100
AcDbCircle
 10
-0.0000000000000071
 20
0.0
 30
19.0
 40
7.1
100
AcDbArc
 50
270.0
 51
90.0
  0
SPLINE
  5
C8
330
A7
100
AcDbEntity
  8
Default
100
AcDbSpline
 70
     0
 71
     3
 72
    18
 73
    14
 74
     0
 42
0.000000001
 43
0.0000000001
 40
0.5000676921732384
 40
0.5000676921732384
 40
0.5000676921732384
 40
0.5000676921732384
 40
0.5078898853313796
 40
0.5078898853313796
 40
0.5157120784895208
 40
0.5157120784895208
 40
0.5313564648058032
 40
0.5313564648058032
 40
0.5626452374383678
 40
0.5626452374383678
 40
0.6251035406034052
 40
0.6251035406034052
 40
0.7500323222798894
 40
0.7500323222798894
 40
0.7500323222798894
 40
0.7500323222798894
 10
-7.100000000000007
 20
0.0
 30
21.43299994503554
 10
-7.100000000002011
 20
0.1674350836959474
 30
21.43299990998368
 10
-7.095022489941194
 20
0.2820380563659361
 30
21.44983856948438
 10
-7.085031229452732
 20
0.4703425088021928
 30
21.48512145793028
 10
-7.07938078866908
 20
0.5447061102582319
 30
21.50489535189772
 10
-7.062397593780426
 20
0.7415447510556978
 30
21.5656811222568
 10
-7.050871334761116
 20
0.8382716429185505
 30
21.60809324043274
 10
-7.017089404412421
 20
1.09562767324213
 30
21.73592285765105
 10
-6.995804216265266
 20
1.216622060115559
 30
21.82315038881022
 10
-6.936130867264384
 20
1.531567092168102
 30
22.08509739442422
 10
-6.902263847512815
 20
1.667542110190096
 30
22.26147501895187
 10
-6.820371433880068
 20
1.985022534940369
 30
22.79113776128778
 10
-6.79247315416286
 20
2.066956324114627
 30
23.14523960071676
 10
-6.792459863703773
 20
2.067
 30
23.5
  0
SPLINE
  5
C9
330
A7
100
AcDbEntity
  8
Default
100
AcDbSpline
 70
     0
 71
     3
 72
    30
 73
    26
 74
     0
 42
0.000000001
 43
0.0000000001
 40
0.0
 40
0.0
 40
0.0
 40
0.0
 40
0.0078237005855788
 40
0.0078237005855788
 40
0.0156474011711576
 40
0.0156474011711576
 40
0.0312948023423151
 40
0.0312948023423151
 40
0.0625896046846303
 40
0.0625896046846303
 40
0.1250573954465969
 40
0.1250573954465969
 40
0.2500346228820248
 40
0.2500346228820248
 40
0.3750108869171663
 40
0.3750108869171663
 40
0.4374764677831129
 40
0.4374764677831129
 40
0.4687720799781757
 40
0.4687720799781757
 40
0.4844198860757071
 40
0.4844198860757071
 40
0.4922437891244728
 40
0.4922437891244728
 40
0.5000676921732384
 40
0.5000676921732384
 40
0.5000676921732384
 40
0.5000676921732384
 10
-7.099999975178624
 20
0.000000017378174
 30
25.5669998536476
 10
-7.099999975178631
 20
-0.1674595169342038
 30
25.5669986641171
 10
-7.095029452709634
 20
-0.2818812187223706
 30
25.55017928188055
 10
-7.08503482829152
 20
-0.4702993039493526
 30
25.51489562617823
 10
-7.079385533228913
 20
-0.5446451726373008
 30
25.4951202006447
 10
-7.062401521318301
 20
-0.741510223653419
 30
25.43433660525827
 10
-7.050877625056161
 20
-0.8382190957238856
 30
25.39192483352061
 10
-7.017095217051437
 20
-1.095592055895573
 30
25.26408490079559
 10
-6.995804045620358
 20
-1.216623272804489
 30
25.17685295037757
 10
-6.936129692111309
 20
-1.531572280298859
 30
24.91490519771293
 10
-6.902263926927167
 20
-1.667541691958507
 30
24.73852569088092
 10
-6.820358591321145
 20
-1.985072289012802
 30
24.20877888541839
 10
-6.792461981646156
 20
-2.066992982170444
 30
23.85458898884417
 10
-6.792457715217485
 20
-2.067007019243497
 30
23.14541308756662
 10
-6.820357544286612
 20
-1.98507556077133
 30
22.79122850566127
 10
-6.90226120340319
 20
-1.667552731588405
 30
22.26149104254743
 10
-6.936126895342003
 20
-1.53158280984016
 30
22.08511908083516
 10
-6.995799202283975
 20
-1.216651125663349
 30
21.82317153164106
 10
-7.01708571739568
 20
-1.095652164649588
 30
21.73593756762859
 10
-7.050869442101671
 20
-0.8382878439125279
 30
21.60809947124188
 10
-7.062396817259536
 20
-0.7415536646063821
 30
21.5656842817004
 10
-7.079381130113189
 20
-0.5447021862067609
 30
21.50489424553734
 10
-7.085034196842461
 20
-0.470289970928884
 30
21.4851116527222
 10
-7.095020957936763
 20
-0.2820635332448651
 30
21.44983899225976
 10
-7.100000000000007
 20
-0.1674749007510463
 30
21.43299998009578
 10
-7.100000000000007
 20
0.0
 30
21.43299994503554
  0
LINE
  5
CA
330
A7
100
AcDbEntity
  8
Default
100
AcDbLine
 10
-7.100000000000007
 20
0.0
 30
21.43299994503554
 11
-7.100000000000007
 21
0.0
 31
19.0
  0
LINE
  5
CB
330
A7
100
AcDbEntity
  8
Default
100
AcDbLine
 10
-7.100000000000008
 20
-0.0000000000000003
 30
28.0
 11
-7.099999975178624
 21
0.000000017378174
 31
25.5669998536476
  0
ARC
  5
CC
330
A7
100
AcDbEntity
  8
Default
100
AcDbCircle
 10
-0.0000000000000095
 20
0.0000000000000024
 30
19.0
 40
7.099999999999997
100
AcDbArc
 50
90.0
 51
180.0
  0
ARC
  5
CD
330
A7
100
AcDbEntity
  8
Default
100
AcDbCircle
 10
-0.0000000000000151
 20
0.0
 30
28.0
 40
4.5
100
AcDbArc
 50
180.0
 51
0.0
  0
ARC
  5
CE
330
A7
100
AcDbEntity
  8
Default
100
AcDbCircle
 10
-0.0000000000000151
 20
0.0
 30
28.0
 40
4.5
100
AcDbArc
 50
0.0
 51
180.0
  0
ARC
  5
CF
330
A7
100
AcDbEntity
  8
Default
100
AcDbCircle
 10
-0.0000000000000155
 20
0.0
 30
31.0
 40
4.5
100
AcDbArc
 50
0.000000000000007
 51
180.0
  0
ARC
  5
D0
330
A7
100
AcDbEntity
  8
Default
100
AcDbCircle
 10
-0.000000000000016
 20
0.0
 30
31.0
 40
4.5
100
AcDbArc
 50
180.0
 51
0.0
  0
LINE
  5
D1
330
A7
100
AcDbEntity
  8
Default
100
AcDbLine
 10
4.499999999999985
 20
-0.0000000000000002
 30
28.0
 11
4.499999999999985
 21
-0.0000000000000002
 31
31.0
  0
LINE
  5
D2
330
A7
100
AcDbEntity
  8
Default
100
AcDbLine
 10
21.20000000000001
 20
-0.0000000000000018
 30
0.0000000000000058
 11
20.20000000000001
 21
-0.0000000000000018
 31
0.0000000000000056
  0
LINE
  5
D3
330
A7
100
AcDbEntity
  8
Default
100
AcDbLine
 10
-20.2
 20
-0.0000000000000018
 30
0.0000000000000001
 11
-21.2
 21
-0.0000000000000018
 31
-0.0000000000000001
  0
LINE
  5
D4
330
A7
100
AcDbEntity
  8
Default
100
AcDbLine
 10
0.0000000000000036
 20
-21.2
 30
0.0000000000000028
 11
0.0000000000000036
 21
-20.2
 31
0.0000000000000028
  0
LINE
  5
D5
330
A7
100
AcDbEntity
  8
Default
100
AcDbLine
 10
0.0000000000000036
 20
20.19999999999999
 30
0.0000000000000028
 11
0.0000000000000036
 21
21.2
 31
0.0000000000000028
  0
CIRCLE
  5
D6
330
A7
100
AcDbEntity
  8
Default
100
AcDbCircle
 10
0.0000000000000023
 20
0.0
 30
16.5
 40
21.2
  0
LINE
  5
D7
330
A7
100
AcDbEntity
  8
Default
100
AcDbLine
 10
0.0
 20
21.2
 30
33.0
 11
0.0000000000000045
 21
21.2
 31
0.0000000000000093
  0
LINE
  5
D8
330
A7
100
AcDbEntity
  8
Default
100
AcDbLine
 10
21.2
 20
0.0
 30
33.0
 11
21.2
 21
0.0
 31
0.0000000000000124
  0
LINE
  5
D9
330
A7
100
AcDbEntity
  8
Default
100
AcDbLine
 10
0.0
 20
-21.2
 30
33.0
 11
0.0000000000000045
 21
-21.2
 31
0.0000000000000093
  0
LINE
  5
DA
330
A7
100
AcDbEntity
  8
Default
100
AcDbLine
 10
-21.2
 20
-0.0000000000000018
 30
33.0
 11
21.2
 21
-0.0000000000000018
 31
33.00000000000001
  0
LINE
  5
DB
330
A7
100
AcDbEntity
  8
Default
100
AcDbLine
 10
0.0
 20
-21.2
 30
33.0
 11
0.0
 21
21.2
 31
33.0
  0
LINE
  5
DC
330
A7
100
AcDbEntity
  8
Default
100
AcDbLine
 10
10.0
 20
0.0
 30
19.0
 11
7.099999999999994
 21
0.0
 31
19.0
  0
LINE
  5
DD
330
A7
100
AcDbEntity
  8
Default
100
AcDbLine
 10
-7.100000000000003
 20
0.0
 30
19.0
 11
-9.999999999999996
 21
0.0
 31
19.0
  0
LINE
  5
DE
330
A7
100
AcDbEntity
  8
Default
100
AcDbLine
 10
0.0000000000000036
 20
-10.0
 30
19.0
 11
0.0000000000000036
 21
-7.100000000000002
 31
19.0
  0
LINE
  5
DF
330
A7
100
AcDbEntity
  8
Default
100
AcDbLine
 10
0.0000000000000036
 20
7.099999999999998
 30
19.0
 11
0.0000000000000036
 21
9.999999999999996
 31
19.0
  0
CIRCLE
  5
E0
330
A7
100
AcDbEntity
  8
Default
100
AcDbCircle
 10
0.0000000000000023
 20
0.0
 30
16.5
 40
10.0
  0
LINE
  5
E1
330
A7
100
AcDbEntity
  8
Default
100
AcDbLine
 10
0.0000000000000019
 20
10.0
 30
19.0
 11
0.0000000000000026
 21
10.0
 31
14.0
  0
LINE
  5
E2
330
A7
100
AcDbEntity
  8
Default
100
AcDbLine
 10
10.0
 20
0.0
 30
19.0
 11
10.0
 21
0.0
 31
14.0
  0
LINE
  5
E3
330
A7
100
AcDbEntity
  8
Default
100
AcDbLine
 10
0.0000000000000019
 20
-10.0
 30
19.0
 11
0.0000000000000026
 21
-10.0
 31
14.0
  0
LINE
  5
E4
330
A7
100
AcDbEntity
  8
Default
100
AcDbLine
 10
20.2
 20
-0.0000000000000018
 30
14.0
 11
10.00000000000001
 21
-0.0000000000000018
 31
14.0
  0
LINE
  5
E5
330
A7
100
AcDbEntity
  8
Default
100
AcDbLine
 10
-9.999999999999996
 20
-0.0000000000000018
 30
14.0
 11
-20.2
 21
-0.0000000000000018
 31
14.0
  0
LINE
  5
E6
330
A7
100
AcDbEntity
  8
Default
100
AcDbLine
 10
0.0000000000000036
 20
-20.2
 30
14.0
 11
0.0000000000000036
 21
-10.0
 31
14.0
  0
LINE
  5
E7
330
A7
100
AcDbEntity
  8
Default
100
AcDbLine
 10
0.0000000000000036
 20
9.999999999999998
 30
14.0
 11
0.0000000000000036
 21
20.20000000000001
 31
14.0
  0
CIRCLE
  5
E8
330
A7
100
AcDbEntity
  8
Default
100
AcDbCircle
 10
0.0000000000000036
 20
0.0
 30
7.0
 40
20.2
  0
LINE
  5
E9
330
A7
100
AcDbEntity
  8
Default
100
AcDbLine
 10
0.0000000000000026
 20
20.2
 30
14.0
 11
0.0000000000000045
 21
20.2
 31
-0.0000000000000036
  0
LINE
  5
EA
330
A7
100
AcDbEntity
  8
Default
100
AcDbLine
 10
20.2
 20
0.0
 30
14.0
 11
20.2
 21
0.0
 31
-0.0000000000000011
  0
LINE
  5
EB
330
A7
100
AcDbEntity
  8
Default
100
AcDbLine
 10
0.0000000000000026
 20
-20.2
 30
14.0
 11
0.0000000000000045
 21
-20.2
 31
-0.0000000000000073
  0
LINE
  5
EC
330
A7
100
AcDbEntity
  8
Default
100
AcDbLine
 10
-19.7
 20
0.0
 30
26.6
 11
-19.7
 21
0.0
 31
25.567
  0
LINE
  5
ED
330
A7
100
AcDbEntity
  8
Default
100
AcDbLine
 10
-19.7
 20
0.0
 30
21.433
 11
-19.7
 21
0.0
 31
20.4
  0
LINE
  5
EE
330
A7
100
AcDbEntity
  8
Default
100
AcDbLine
 10
-19.7
 20
-3.1
 30
23.5
 11
-19.7
 21
-2.067
 31
23.5
  0
LINE
  5
EF
330
A7
100
AcDbEntity
  8
Default
100
AcDbLine
 10
-19.7
 20
2.067
 30
23.5
 11
-19.7
 21
3.1
 31
23.5
  0
CIRCLE
  5
F0
330
A7
100
AcDbEntity
  8
Default
100
AcDbCircle
 10
0.0
 20
23.5
 30
-20.45036242840495
 40
3.1
210
1.0
220
0.0
230
0.0
  0
LINE
  5
F1
330
A7
100
AcDbEntity
  8
Default
100
AcDbLine
 10
-21.2
 20
0.0
 30
26.6
 11
-19.7
 21
0.0
 31
26.6
  0
LINE
  5
F2
330
A7
100
AcDbEntity
  8
Default
100
AcDbLine
 10
-20.97245107660069
 20
-3.1
 30
23.5
 11
-19.7
 21
-3.1
 31
23.5
  0
LINE
  5
F3
330
A7
100
AcDbEntity
  8
Default
100
AcDbLine
 10
-21.19968967218353
 20
0.0
 30
20.4
 11
-19.7
 21
0.0
 31
20.4
  0
CIRCLE
  5
F4
330
A7
100
AcDbEntity
  8
Default
100
AcDbCircle
 10
0.0
 20
23.5
 30
-13.24622645722272
 40
2.067
210
1.0
220
0.0
230
0.0
  0
LINE
  5
F5
330
A7
100
AcDbEntity
  8
Default
100
AcDbLine
 10
-19.7
 20
0.0
 30
25.567
 11
-7.099999937946468
 21
0.0
 31
25.567
  0
LINE
  5
F6
330
A7
100
AcDbEntity
  8
Default
100
AcDbLine
 10
-19.7
 20
-2.067
 30
23.5
 11
-6.792803971577001
 21
-2.067
 31
23.5
  0
LINE
  5
F7
330
A7
100
AcDbEntity
  8
Default
100
AcDbLine
 10
-19.7
 20
0.0
 30
21.433
 11
-7.099717612951331
 21
0.0
 31
21.433
  0
ARC
  5
F8
330
A7
100
AcDbEntity
  8
Default
100
AcDbCircle
 10
-0.0000000000000074
 20
0.0
 30
23.5
 40
7.1
100
AcDbArc
 50
196.9254256548967
 51
163.0745744167919
  0
LINE
  5
F9
330
A7
100
AcDbEntity
  8
Default
100
AcDbLine
 10
-0.000000000000008
 20
7.1
 30
28.0
 11
-0.0000000000000067
 21
7.1
 31
19.0
  0
LINE
  5
FA
330
A7
100
AcDbEntity
  8
Default
100
AcDbLine
 10
7.099999999999992
 20
0.0
 30
28.0
 11
7.099999999999993
 21
0.0
 31
19.0
  0
LINE
  5
FB
330
A7
100
AcDbEntity
  8
Default
100
AcDbLine
 10
-0.000000000000008
 20
-7.1
 30
28.0
 11
-0.0000000000000067
 21
-7.1
 31
19.0
  0
CIRCLE
  5
FC
330
A7
100
AcDbEntity
  8
Default
100
AcDbCircle
 10
-0.0000000000000154
 20
0.0
 30
29.5
 40
4.499999999999999
  0
LINE
  5
FD
330
A7
100
AcDbEntity
  8
Default
100
AcDbLine
 10
-0.0000000000000152
 20
4.5
 30
28.0
 11
-0.0000000000000156
 21
4.5
 31
31.0
  0
LINE
  5
FE
330
A7
100
AcDbEntity
  8
Default
100
AcDbLine
 10
-4.500000000000016
 20
0.0
 30
28.0
 11
-4.500000000000016
 21
0.0
 31
31.0
  0
LINE
  5
FF
330
A7
100
AcDbEntity
  8
Default
100
AcDbLine
 10
-0.0000000000000152
 20
-4.5
 30
28.0
 11
-0.0000000000000156
 21
-4.5
 31
31.0
  0
LINE
  5
100
330
A7
100
AcDbEntity
  8
Default
100
AcDbLine
 10
7.099999999999993
 20
0.0
 30
28.0
 11
4.499999999999986
 21
0.0
 31
28.0
  0
LINE
  5
101
330
A7
100
AcDbEntity
  8
Default
100
AcDbLine
 10
-4.500000000000013
 20
0.0
 30
28.0
 11
-7.100000000000007
 21
0.0
 31
28.0
  0
LINE
  5
102
330
A7
100
AcDbEntity
  8
Default
100
AcDbLine
 10
-0.000000000000008
 20
-7.100000000000001
 30
28.0
 11
-0.000000000000008
 21
-4.5
 31
28.0
  0
LINE
  5
103
330
A7
100
AcDbEntity
  8
Default
100
AcDbLine
 10
-0.000000000000008
 20
4.500000000000002
 30
28.0
 11
-0.000000000000008
 21
7.1
 31
28.0
  0
LINE
  5
104
330
A7
100
AcDbEntity
  8
Default
100
AcDbLine
 10
4.499999999999984
 20
0.0
 30
31.0
 11
-4.500000000000017
 21
0.0
 31
31.0
  0
LINE
  5
105
330
A7
100
AcDbEntity
  8
Default
100
AcDbLine
 10
-0.0000000000000168
 20
-4.5
 30
31.0
 11
-0.0000000000000168
 21
4.500000000000001
 31
31.0
  0
ENDBLK
  5
107
330
A7
100
AcDbEntity
  8
0
100
AcDbBlockEnd
  0
BLOCK
  5
156
330
109
100
AcDbEntity
  8
0
100
AcDbBlockBegin
  2
10BO11360YY
 70
     0
 10
0.0
 20
0.0
 30
0.0
  3
10BO11360YY
  1
10BO11360YY
  0
ARC
  5
10A
330
109
100
AcDbEntity
  8
Default
 62
     9
420
 11584734
100
AcDbCircle
 10
-49.9999999999999
 20
0.0
 30
3.1
 40
21.45
100
AcDbArc
 50
0.0
 51
180.0
  0
ARC
  5
10B
330
109
100
AcDbEntity
  8
Default
 62
     9
420
 11584734
100
AcDbCircle
 10
-49.9999999999999
 20
0.0
 30
3.1
 40
21.45
100
AcDbArc
 50
180.0
 51
0.0
  0
ARC
  5
10C
330
109
100
AcDbEntity
  8
Default
 62
     9
420
 11584734
100
AcDbCircle
 10
-49.99999999999991
 20
0.0
 30
4.0
 40
21.45000000000001
100
AcDbArc
 50
0.000000000000007
 51
180.0
  0
ARC
  5
10D
330
109
100
AcDbEntity
  8
Default
 62
     9
420
 11584734
100
AcDbCircle
 10
-49.99999999999991
 20
0.0
 30
4.0
 40
21.45000000000001
100
AcDbArc
 50
180.0
 51
0.0
  0
LINE
  5
10E
330
109
100
AcDbEntity
  8
Default
 62
     9
420
 11584734
100
AcDbLine
 10
-71.44999999999992
 20
0.0000000000000011
 30
4.0
 11
-71.4499999999999
 21
0.0
 31
3.1
  0
ARC
  5
10F
330
109
100
AcDbEntity
  8
Default
 62
     9
420
 11584734
100
AcDbCircle
 10
-49.99999999999991
 20
0.0
 30
0.8999999999999999
 40
21.45000000000001
100
AcDbArc
 50
0.000000000000007
 51
180.0
  0
ARC
  5
110
330
109
100
AcDbEntity
  8
Default
 62
     9
420
 11584734
100
AcDbCircle
 10
-49.99999999999991
 20
0.0
 30
0.8999999999999999
 40
21.45000000000001
100
AcDbArc
 50
180.0
 51
0.0
  0
ARC
  5
111
330
109
100
AcDbEntity
  8
Default
 62
     9
420
 11584734
100
AcDbCircle
 10
-49.99999999999991
 20
0.0
 30
0.0
 40
21.45000000000001
100
AcDbArc
 50
180.0
 51
0.0
  0
ARC
  5
112
330
109
100
AcDbEntity
  8
Default
 62
     9
420
 11584734
100
AcDbCircle
 10
-49.99999999999991
 20
0.0
 30
0.0
 40
21.45000000000001
100
AcDbArc
 50
0.000000000000007
 51
180.0
  0
LINE
  5
113
330
109
100
AcDbEntity
  8
Default
 62
     9
420
 11584734
100
AcDbLine
 10
-71.44999999999992
 20
0.0
 30
0.8999999999999999
 11
-71.44999999999992
 21
0.0000000000000011
 31
0.0
  0
ARC
  5
114
330
109
100
AcDbEntity
  8
Default
 62
     9
420
 11584734
100
AcDbCircle
 10
-49.99999999999991
 20
0.0
 30
2.749999999999999
 40
22.50000000000001
100
AcDbArc
 50
180.0
 51
0.0
  0
ARC
  5
115
330
109
100
AcDbEntity
  8
Default
 62
     9
420
 11584734
100
AcDbCircle
 10
-49.99999999999991
 20
0.0
 30
2.75
 40
22.50000000000001
100
AcDbArc
 50
0.000000000000007
 51
180.0
  0
ARC
  5
116
330
109
100
AcDbEntity
  8
Default
 62
     9
420
 11584734
100
AcDbCircle
 10
-49.9999999999999
 20
0.0
 30
1.25
 40
22.5
100
AcDbArc
 50
180.0
 51
0.0
  0
ARC
  5
117
330
109
100
AcDbEntity
  8
Default
 62
     9
420
 11584734
100
AcDbCircle
 10
-49.9999999999999
 20
0.0
 30
1.25
 40
22.5
100
AcDbArc
 50
0.0
 51
180.0
  0
LINE
  5
118
330
109
100
AcDbEntity
  8
Default
 62
     9
420
 11584734
100
AcDbLine
 10
-27.4999999999999
 20
0.0
 30
1.25
 11
-27.4999999999999
 21
0.0
 31
2.749999999999999
  0
ARC
  5
119
330
109
100
AcDbEntity
  8
Default
 62
     9
420
 11584734
100
AcDbCircle
 10
-49.9999999999999
 20
0.0
 30
1.0
 40
21.55
100
AcDbArc
 50
0.000000000000007
 51
180.0
  0
ARC
  5
11A
330
109
100
AcDbEntity
  8
Default
 62
     9
420
 11584734
100
AcDbCircle
 10
-49.9999999999999
 20
0.0
 30
1.0
 40
21.55
100
AcDbArc
 50
180.0
 51
0.0
  0
ARC
  5
11B
330
109
100
AcDbEntity
  8
Default
 62
     9
420
 11584734
100
AcDbCircle
 10
28.4499999999999
 20
0.9000000000000036
 30
-0.0000000000003014
 40
0.0999999999999943
210
1.055645540865025E-14
220
1.0
230
3.747089299799881E-28
100
AcDbArc
 50
359.999999999998
 51
90.0
  0
ARC
  5
11C
330
109
100
AcDbEntity
  8
Default
 62
     9
420
 11584734
100
AcDbCircle
 10
-49.9999999999999
 20
0.0
 30
3.0
 40
21.55
100
AcDbArc
 50
0.0
 51
180.0
  0
ARC
  5
11D
330
109
100
AcDbEntity
  8
Default
 62
     9
420
 11584734
100
AcDbCircle
 10
-49.9999999999999
 20
0.0
 30
3.0
 40
21.55
100
AcDbArc
 50
180.0
 51
0.0
  0
ARC
  5
11E
330
109
100
AcDbEntity
  8
Default
 62
     9
420
 11584734
100
AcDbCircle
 10
71.5499999999999
 20
3.100000000000001
 30
0.0000000000007543
 40
0.0999999999999948
210
-1.055645540865142E-14
220
1.0
230
0.0
100
AcDbArc
 50
180.0000000000002
 51
270.0
  0
ARC
  5
11F
330
109
100
AcDbEntity
  8
Default
 62
     9
420
 11584734
100
AcDbCircle
 10
-49.9999999999999
 20
0.0
 30
1.0
 40
22.25
100
AcDbArc
 50
180.0
 51
0.0
  0
ARC
  5
120
330
109
100
AcDbEntity
  8
Default
 62
     9
420
 11584734
100
AcDbCircle
 10
-49.9999999999999
 20
0.0
 30
1.0
 40
22.25
100
AcDbArc
 50
0.0
 51
180.0
  0
ARC
  5
121
330
109
100
AcDbEntity
  8
Default
 62
     9
420
 11584734
100
AcDbCircle
 10
27.7499999999999
 20
1.25
 30
0.0000000000001199
 40
0.25
210
-4.359742604964578E-15
220
1.0
230
0.0
100
AcDbArc
 50
180.0
 51
270.0
  0
ARC
  5
122
330
109
100
AcDbEntity
  8
Default
 62
     9
420
 11584734
100
AcDbCircle
 10
-49.99999999999991
 20
0.0
 30
3.0
 40
22.25000000000001
100
AcDbArc
 50
180.0
 51
0.0
  0
ARC
  5
123
330
109
100
AcDbEntity
  8
Default
 62
     9
420
 11584734
100
AcDbCircle
 10
-49.99999999999991
 20
0.0
 30
3.0
 40
22.25000000000001
100
AcDbArc
 50
0.000000000000007
 51
180.0
  0
ARC
  5
124
330
109
100
AcDbEntity
  8
Default
 62
     9
420
 11584734
100
AcDbCircle
 10
72.24999999999991
 20
2.749999999999986
 30
-0.0000000000003161
 40
0.25
210
4.359742604965074E-15
220
1.0
230
-2.477023242394259E-28
100
AcDbArc
 50
0.0000000000032569
 51
90.0
  0
ARC
  5
125
330
109
100
AcDbEntity
  8
Default
 62
     9
420
 11584734
100
AcDbCircle
 10
-49.99999999999991
 20
0.0
 30
3.999999999999999
 40
32.50000000000001
100
AcDbArc
 50
180.0
 51
0.0
  0
ARC
  5
126
330
109
100
AcDbEntity
  8
Default
 62
     9
420
 11584734
100
AcDbCircle
 10
-49.99999999999991
 20
0.0
 30
3.999999999999999
 40
32.50000000000001
100
AcDbArc
 50
0.0
 51
180.0
  0
ARC
  5
127
330
109
100
AcDbEntity
  8
Default
 62
     9
420
 11584734
100
AcDbCircle
 10
-49.99999999999991
 20
0.0
 30
0.0
 40
32.50000000000001
100
AcDbArc
 50
0.0
 51
180.0
  0
ARC
  5
128
330
109
100
AcDbEntity
  8
Default
 62
     9
420
 11584734
100
AcDbCircle
 10
-49.99999999999991
 20
0.0
 30
0.0
 40
32.50000000000001
100
AcDbArc
 50
180.0
 51
0.0
  0
LINE
  5
129
330
109
100
AcDbEntity
  8
Default
 62
     9
420
 11584734
100
AcDbLine
 10
-82.49999999999991
 20
0.0000000000000016
 30
4.0
 11
-82.49999999999991
 21
0.0000000000000016
 31
0.0000000000000005
  0
LINE
  5
12A
330
109
100
AcDbEntity
  8
Default
 62
     9
420
 11584734
100
AcDbLine
 10
-82.4999999999999
 20
0.0
 30
4.0
 11
-71.4499999999999
 21
0.0
 31
4.0
  0
LINE
  5
12B
330
109
100
AcDbEntity
  8
Default
 62
     9
420
 11584734
100
AcDbLine
 10
-28.5499999999999
 20
0.0
 30
4.0
 11
-17.4999999999999
 21
0.0
 31
4.0
  0
LINE
  5
12C
330
109
100
AcDbEntity
  8
Default
 62
     9
420
 11584734
100
AcDbLine
 10
-49.9999999999999
 20
-32.5
 30
4.0
 11
-49.9999999999999
 21
-21.45
 31
4.0
  0
LINE
  5
12D
330
109
100
AcDbEntity
  8
Default
 62
     9
420
 11584734
100
AcDbLine
 10
-49.9999999999999
 20
21.45
 30
4.0
 11
-49.9999999999999
 21
32.50000000000001
 31
4.0
  0
LINE
  5
12E
330
109
100
AcDbEntity
  8
Default
 62
     9
420
 11584734
100
AcDbLine
 10
-82.4999999999999
 20
0.0
 30
0.0
 11
-71.4499999999999
 21
0.0
 31
0.0
  0
LINE
  5
12F
330
109
100
AcDbEntity
  8
Default
 62
     9
420
 11584734
100
AcDbLine
 10
-28.5499999999999
 20
0.0
 30
0.0
 11
-17.4999999999999
 21
0.0
 31
0.0
  0
LINE
  5
130
330
109
100
AcDbEntity
  8
Default
 62
     9
420
 11584734
100
AcDbLine
 10
-49.9999999999999
 20
-32.5
 30
0.0
 11
-49.9999999999999
 21
-21.45
 31
0.0
  0
LINE
  5
131
330
109
100
AcDbEntity
  8
Default
 62
     9
420
 11584734
100
AcDbLine
 10
-49.9999999999999
 20
21.45
 30
0.0
 11
-49.9999999999999
 21
32.50000000000001
 31
0.0
  0
CIRCLE
  5
132
330
109
100
AcDbEntity
  8
Default
 62
     9
420
 11584734
100
AcDbCircle
 10
-49.9999999999999
 20
0.0
 30
3.55
 40
21.45
  0
LINE
  5
133
330
109
100
AcDbEntity
  8
Default
 62
     9
420
 11584734
100
AcDbLine
 10
-49.9999999999999
 20
21.45
 30
4.0
 11
-49.9999999999999
 21
21.45
 31
3.1
  0
LINE
  5
134
330
109
100
AcDbEntity
  8
Default
 62
     9
420
 11584734
100
AcDbLine
 10
-28.5499999999999
 20
0.0
 30
4.0
 11
-28.5499999999999
 21
0.0
 31
3.1
  0
LINE
  5
135
330
109
100
AcDbEntity
  8
Default
 62
     9
420
 11584734
100
AcDbLine
 10
-49.9999999999999
 20
-21.45
 30
4.0
 11
-49.9999999999999
 21
-21.45
 31
3.1
  0
CIRCLE
  5
136
330
109
100
AcDbEntity
  8
Default
 62
     9
420
 11584734
100
AcDbCircle
 10
-49.9999999999999
 20
0.0
 30
0.4500000000000004
 40
21.45
  0
LINE
  5
137
330
109
100
AcDbEntity
  8
Default
 62
     9
420
 11584734
100
AcDbLine
 10
-49.9999999999999
 20
21.45
 30
0.9
 11
-49.9999999999999
 21
21.45
 31
0.0
  0
LINE
  5
138
330
109
100
AcDbEntity
  8
Default
 62
     9
420
 11584734
100
AcDbLine
 10
-28.5499999999999
 20
0.0
 30
0.9
 11
-28.5499999999999
 21
0.0
 31
0.0
  0
LINE
  5
139
330
109
100
AcDbEntity
  8
Default
 62
     9
420
 11584734
100
AcDbLine
 10
-49.9999999999999
 20
-21.45
 30
0.9
 11
-49.9999999999999
 21
-21.45
 31
0.0
  0
CIRCLE
  5
13A
330
109
100
AcDbEntity
  8
Default
 62
     9
420
 11584734
100
AcDbCircle
 10
-49.9999999999999
 20
0.0
 30
2.0
 40
22.5
  0
LINE
  5
13B
330
109
100
AcDbEntity
  8
Default
 62
     9
420
 11584734
100
AcDbLine
 10
-49.9999999999999
 20
22.5
 30
1.25
 11
-49.9999999999999
 21
22.5
 31
2.75
  0
LINE
  5
13C
330
109
100
AcDbEntity
  8
Default
 62
     9
420
 11584734
100
AcDbLine
 10
-72.4999999999999
 20
0.0
 30
1.25
 11
-72.4999999999999
 21
0.0
 31
2.75
  0
LINE
  5
13D
330
109
100
AcDbEntity
  8
Default
 62
     9
420
 11584734
100
AcDbLine
 10
-49.9999999999999
 20
-22.5
 30
1.25
 11
-49.9999999999999
 21
-22.5
 31
2.75
  0
LINE
  5
13E
330
109
100
AcDbEntity
  8
Default
 62
     9
420
 11584734
100
AcDbLine
 10
-27.7499999999999
 20
-0.0000000000000018
 30
3.0
 11
-28.4499999999999
 21
-0.0000000000000018
 31
3.0
  0
LINE
  5
13F
330
109
100
AcDbEntity
  8
Default
 62
     9
420
 11584734
100
AcDbLine
 10
-71.54999999999991
 20
-0.0000000000000018
 30
3.0
 11
-72.2499999999999
 21
-0.0000000000000018
 31
3.0
  0
LINE
  5
140
330
109
100
AcDbEntity
  8
Default
 62
     9
420
 11584734
100
AcDbLine
 10
-49.9999999999999
 20
-22.25
 30
3.0
 11
-49.9999999999999
 21
-21.55
 31
3.0
  0
LINE
  5
141
330
109
100
AcDbEntity
  8
Default
 62
     9
420
 11584734
100
AcDbLine
 10
-49.9999999999999
 20
21.55
 30
3.0
 11
-49.9999999999999
 21
22.25
 31
3.0
  0
LINE
  5
142
330
109
100
AcDbEntity
  8
Default
 62
     9
420
 11584734
100
AcDbLine
 10
-72.24999999999991
 20
-0.0000000000000018
 30
1.0
 11
-71.54999999999991
 21
-0.0000000000000018
 31
1.0
  0
LINE
  5
143
330
109
100
AcDbEntity
  8
Default
 62
     9
420
 11584734
100
AcDbLine
 10
-28.4499999999999
 20
-0.0000000000000018
 30
1.0
 11
-27.7499999999999
 21
-0.0000000000000018
 31
1.0
  0
LINE
  5
144
330
109
100
AcDbEntity
  8
Default
 62
     9
420
 11584734
100
AcDbLine
 10
-49.9999999999999
 20
-22.25
 30
1.0
 11
-49.9999999999999
 21
-21.55
 31
1.0
  0
LINE
  5
145
330
109
100
AcDbEntity
  8
Default
 62
     9
420
 11584734
100
AcDbLine
 10
-49.9999999999999
 20
21.55
 30
1.0
 11
-49.9999999999999
 21
22.25
 31
1.0
  0
ARC
  5
146
330
109
100
AcDbEntity
  8
Default
 62
     9
420
 11584734
100
AcDbCircle
 10
21.55
 20
0.9
 30
-49.9999999999999
 40
0.1
210
1.0
220
0.0
230
0.0
100
AcDbArc
 50
90.0
 51
180.0
  0
ARC
  5
147
330
109
100
AcDbEntity
  8
Default
 62
     9
420
 11584734
100
AcDbCircle
 10
71.5499999999999
 20
0.9
 30
0.0
 40
0.1
210
0.0
220
1.0
230
0.0
100
AcDbArc
 50
90.0
 51
180.0
  0
ARC
  5
148
330
109
100
AcDbEntity
  8
Default
 62
     9
420
 11584734
100
AcDbCircle
 10
-21.55
 20
0.9
 30
-49.9999999999999
 40
0.1
210
1.0
220
0.0
230
0.0
100
AcDbArc
 50
0.0
 51
90.0
  0
ARC
  5
149
330
109
100
AcDbEntity
  8
Default
 62
     9
420
 11584734
100
AcDbCircle
 10
21.55
 20
3.1
 30
-49.9999999999999
 40
0.1
210
1.0
220
0.0
230
0.0
100
AcDbArc
 50
180.0
 51
270.0
  0
ARC
  5
14A
330
109
100
AcDbEntity
  8
Default
 62
     9
420
 11584734
100
AcDbCircle
 10
28.4499999999999
 20
3.1
 30
0.0
 40
0.1
210
0.0
220
1.0
230
0.0
100
AcDbArc
 50
270.0
 51
0.0
  0
ARC
  5
14B
330
109
100
AcDbEntity
  8
Default
 62
     9
420
 11584734
100
AcDbCircle
 10
-21.55
 20
3.1
 30
-49.9999999999999
 40
0.1
210
1.0
220
0.0
230
0.0
100
AcDbArc
 50
270.0
 51
0.0
  0
ARC
  5
14C
330
109
100
AcDbEntity
  8
Default
 62
     9
420
 11584734
100
AcDbCircle
 10
22.25
 20
1.25
 30
-49.9999999999999
 40
0.25
210
1.0
220
0.0
230
0.0
100
AcDbArc
 50
270.0
 51
0.0
  0
ARC
  5
14D
330
109
100
AcDbEntity
  8
Default
 62
     9
420
 11584734
100
AcDbCircle
 10
72.2499999999999
 20
1.25
 30
0.0
 40
0.25
210
0.0
220
1.0
230
0.0
100
AcDbArc
 50
270.0
 51
0.0
  0
ARC
  5
14E
330
109
100
AcDbEntity
  8
Default
 62
     9
420
 11584734
100
AcDbCircle
 10
-22.25
 20
1.25
 30
-49.9999999999999
 40
0.25
210
1.0
220
0.0
230
0.0
100
AcDbArc
 50
180.0
 51
270.0
  0
ARC
  5
14F
330
109
100
AcDbEntity
  8
Default
 62
     9
420
 11584734
100
AcDbCircle
 10
22.25
 20
2.75
 30
-49.9999999999999
 40
0.25
210
1.0
220
0.0
230
0.0
100
AcDbArc
 50
0.0
 51
90.0
  0
ARC
  5
150
330
109
100
AcDbEntity
  8
Default
 62
     9
420
 11584734
100
AcDbCircle
 10
27.7499999999999
 20
2.75
 30
0.0
 40
0.25
210
0.0
220
1.0
230
0.0
100
AcDbArc
 50
90.0
 51
180.0
  0
ARC
  5
151
330
109
100
AcDbEntity
  8
Default
 62
     9
420
 11584734
100
AcDbCircle
 10
-22.25
 20
2.75
 30
-49.9999999999999
 40
0.25
210
1.0
220
0.0
230
0.0
100
AcDbArc
 50
90.0
 51
180.0
  0
CIRCLE
  5
152
330
109
100
AcDbEntity
  8
Default
 62
     9
420
 11584734
100
AcDbCircle
 10
-49.9999999999999
 20
0.0
 30
2.0
 40
32.5
  0
LINE
  5
153
330
109
100
AcDbEntity
  8
Default
 62
     9
420
 11584734
100
AcDbLine
 10
-49.9999999999999
 20
32.5
 30
4.0
 11
-49.9999999999999
 21
32.5
 31
0.0000000000000016
  0
LINE
  5
154
330
109
100
AcDbEntity
  8
Default
 62
     9
420
 11584734
100
AcDbLine
 10
-17.4999999999999
 20
0.0
 30
3.999999999999999
 11
-17.4999999999999
 21
0.0
 31
0.0000000000000011
  0
LINE
  5
155
330
109
100
AcDbEntity
  8
Default
 62
     9
420
 11584734
100
AcDbLine
 10
-49.9999999999999
 20
-32.5
 30
3.999999999999999
 11
-49.9999999999999
 21
-32.5
 31
0.0000000000000011
  0
ENDBLK
  5
157
330
109
100
AcDbEntity
  8
0
100
AcDbBlockEnd
  0
BLOCK
  5
162
330
159
100
AcDbEntity
  8
0
100
AcDbBlockBegin
  2
10OR19860YY
 70
     0
 10
0.0
 20
0.0
 30
0.0
  3
10OR19860YY
  1
10OR19860YY
  0
CIRCLE
  5
15A
330
159
100
AcDbEntity
  8
Default
 62
   250
420
  3355443
100
AcDbCircle
 10
0.0
 20
0.0
 30
0.75
 40
22.5
  0
CIRCLE
  5
15B
330
159
100
AcDbEntity
  8
Default
 62
   250
420
  3355443
100
AcDbCircle
 10
21.75
 20
0.75
 30
0.0
 40
0.75
210
0.0
220
1.0
230
0.0
  0
CIRCLE
  5
15C
330
159
100
AcDbEntity
  8
Default
 62
   250
420
  3355443
100
AcDbCircle
 10
0.0
 20
0.0
 30
0.0
 40
21.75
  0
CIRCLE
  5
15D
330
159
100
AcDbEntity
  8
Default
 62
   250
420
  3355443
100
AcDbCircle
 10
0.0
 20
0.0
 30
0.75
 40
21.0
  0
CIRCLE
  5
15E
330
159
100
AcDbEntity
  8
Default
 62
   250
420
  3355443
100
AcDbCircle
 10
0.0
 20
0.0
 30
1.5
 40
21.75
  0
CIRCLE
  5
15F
330
159
100
AcDbEntity
  8
Default
 62
   250
420
  3355443
100
AcDbCircle
 10
21.75
 20
0.75
 30
0.0
 40
0.75
210
1.0
220
0.0
230
0.0
  0
CIRCLE
  5
160
330
159
100
AcDbEntity
  8
Default
 62
   250
420
  3355443
100
AcDbCircle
 10
-21.75
 20
0.75
 30
0.0
 40
0.75
210
0.0
220
1.0
230
0.0
  0
CIRCLE
  5
161
330
159
100
AcDbEntity
  8
Default
 62
   250
420
  3355443
100
AcDbCircle
 10
-21.75
 20
0.75
 30
0.0
 40
0.75
210
1.0
220
0.0
230
0.0
  0
ENDBLK
  5
163
330
159
100
AcDbEntity
  8
0
100
AcDbBlockEnd
  0
BLOCK
  5
186
330
165
100
AcDbEntity
  8
0
100
AcDbBlockBegin
  2
10LE03860YY
 70
     0
 10
0.0
 20
0.0
 30
0.0
  3
10LE03860YY
  1
10LE03860YY
  0
ARC
  5
166
330
165
100
AcDbEntity
  8
Default
100
AcDbCircle
 10
0.0
 20
0.0
 30
35.5
 40
3.0
100
AcDbArc
 50
0.000000000000007
 51
180.0
  0
ARC
  5
167
330
165
100
AcDbEntity
  8
Default
100
AcDbCircle
 10
0.0
 20
0.0
 30
35.5
 40
3.0
100
AcDbArc
 50
180.0
 51
0.0
  0
ARC
  5
168
330
165
100
AcDbEntity
  8
Default
100
AcDbCircle
 10
0.0
 20
0.0
 30
0.0000000000000003
 40
3.0
100
AcDbArc
 50
180.0
 51
0.0
  0
ARC
  5
169
330
165
100
AcDbEntity
  8
Default
100
AcDbCircle
 10
0.0
 20
0.0
 30
0.0000000000000003
 40
3.0
100
AcDbArc
 50
0.000000000000007
 51
180.0
  0
LINE
  5
16A
330
165
100
AcDbEntity
  8
Default
100
AcDbLine
 10
-3.0
 20
-0.0000000000000001
 30
35.49999999999999
 11
-3.0
 21
-0.0000000000000001
 31
0.0000000000000037
  0
ARC
  5
16B
330
165
100
AcDbEntity
  8
Default
100
AcDbCircle
 10
0.0
 20
0.0
 30
40.0
 40
2.499999999999999
100
AcDbArc
 50
180.0
 51
0.0
  0
ARC
  5
16C
330
165
100
AcDbEntity
  8
Default
100
AcDbCircle
 10
0.0
 20
0.0
 30
40.0
 40
2.499999999999999
100
AcDbArc
 50
0.000000000000007
 51
180.0
  0
ARC
  5
16D
330
165
100
AcDbEntity
  8
Default
100
AcDbCircle
 10
0.0
 20
0.0
 30
35.5
 40
2.5
100
AcDbArc
 50
180.0
 51
0.0
  0
ARC
  5
16E
330
165
100
AcDbEntity
  8
Default
100
AcDbCircle
 10
0.0
 20
0.0
 30
35.5
 40
2.5
100
AcDbArc
 50
0.000000000000007
 51
180.0
  0
LINE
  5
16F
330
165
100
AcDbEntity
  8
Default
100
AcDbLine
 10
-2.499999999999999
 20
0.0
 30
40.0
 11
-2.5
 21
-0.0000000000000001
 31
35.5
  0
ARC
  5
170
330
165
100
AcDbEntity
  8
Default
100
AcDbCircle
 10
-0.0000000000000001
 20
0.0
 30
41.0
 40
1.5
100
AcDbArc
 50
180.0
 51
0.0
  0
ARC
  5
171
330
165
100
AcDbEntity
  8
Default
100
AcDbCircle
 10
-0.0000000000000001
 20
0.0
 30
41.0
 40
1.5
100
AcDbArc
 50
0.0
 51
180.0
  0
LINE
  5
172
330
165
100
AcDbEntity
  8
Default
100
AcDbLine
 10
-1.5
 20
0.0000000000000001
 30
41.0
 11
-2.499999999999999
 21
0.0
 31
40.0
  0
LINE
  5
173
330
165
100
AcDbEntity
  8
Default
100
AcDbLine
 10
3.0
 20
0.0
 30
0.0
 11
-3.0
 21
0.0
 31
0.0
  0
LINE
  5
174
330
165
100
AcDbEntity
  8
Default
100
AcDbLine
 10
0.0
 20
-3.0
 30
0.0
 11
0.0
 21
3.0
 31
0.0
  0
CIRCLE
  5
175
330
165
100
AcDbEntity
  8
Default
100
AcDbCircle
 10
0.0
 20
0.0
 30
17.75
 40
3.0
  0
LINE
  5
176
330
165
100
AcDbEntity
  8
Default
100
AcDbLine
 10
0.0
 20
3.0
 30
35.49999999999999
 11
0.0
 21
3.0
 31
0.0000000000000089
  0
LINE
  5
177
330
165
100
AcDbEntity
  8
Default
100
AcDbLine
 10
3.0
 20
0.0
 30
35.49999999999999
 11
3.0
 21
0.0
 31
0.0000000000000089
  0
LINE
  5
178
330
165
100
AcDbEntity
  8
Default
100
AcDbLine
 10
0.0
 20
-3.0
 30
35.49999999999999
 11
0.0
 21
-3.0
 31
0.0000000000000089
  0
LINE
  5
179
330
165
100
AcDbEntity
  8
Default
100
AcDbLine
 10
-3.0
 20
0.0
 30
35.5
 11
-2.5
 21
0.0
 31
35.5
  0
LINE
  5
17A
330
165
100
AcDbEntity
  8
Default
100
AcDbLine
 10
2.5
 20
0.0
 30
35.5
 11
3.0
 21
0.0
 31
35.5
  0
LINE
  5
17B
330
165
100
AcDbEntity
  8
Default
100
AcDbLine
 10
0.0
 20
-3.0
 30
35.5
 11
0.0
 21
-2.5
 31
35.5
  0
LINE
  5
17C
330
165
100
AcDbEntity
  8
Default
100
AcDbLine
 10
0.0
 20
2.5
 30
35.5
 11
0.0
 21
2.999999999999999
 31
35.5
  0
CIRCLE
  5
17D
330
165
100
AcDbEntity
  8
Default
100
AcDbCircle
 10
0.0
 20
0.0
 30
37.75
 40
2.5
  0
LINE
  5
17E
330
165
100
AcDbEntity
  8
Default
100
AcDbLine
 10
0.0
 20
2.5
 30
40.0
 11
0.0
 21
2.5
 31
35.5
  0
LINE
  5
17F
330
165
100
AcDbEntity
  8
Default
100
AcDbLine
 10
2.5
 20
0.0
 30
40.0
 11
2.5
 21
0.0
 31
35.5
  0
LINE
  5
180
330
165
100
AcDbEntity
  8
Default
100
AcDbLine
 10
0.0
 20
-2.5
 30
40.0
 11
0.0
 21
-2.5
 31
35.5
  0
LINE
  5
181
330
165
100
AcDbEntity
  8
Default
100
AcDbLine
 10
-1.5
 20
0.0
 30
41.0
 11
1.5
 21
0.0
 31
41.0
  0
LINE
  5
182
330
165
100
AcDbEntity
  8
Default
100
AcDbLine
 10
-0.0000000000000004
 20
-1.5
 30
41.0
 11
-0.0000000000000004
 21
1.5
 31
41.0
  0
LINE
  5
183
330
165
100
AcDbEntity
  8
Default
100
AcDbLine
 10
0.0
 20
1.499999999999999
 30
41.0
 11
0.0
 21
2.499999999999999
 31
39.99999999999999
  0
LINE
  5
184
330
165
100
AcDbEntity
  8
Default
100
AcDbLine
 10
1.499999999999999
 20
0.0
 30
41.0
 11
2.499999999999999
 21
0.0
 31
39.99999999999999
  0
LINE
  5
185
330
165
100
AcDbEntity
  8
Default
100
AcDbLine
 10
0.0
 20
-1.499999999999999
 30
41.0
 11
0.0
 21
-2.499999999999999
 31
39.99999999999999
  0
ENDBLK
  5
187
330
165
100
AcDbEntity
  8
0
100
AcDbBlockEnd
  0
BLOCK
  5
1C6
330
189
100
AcDbEntity
  8
0
100
AcDbBlockBegin
  2
10VI0826000
 70
     0
 10
0.0
 20
0.0
 30
0.0
  3
10VI0826000
  1
10VI0826000
  0
SPLINE
  5
18A
330
189
100
AcDbEntity
  8
Default
100
AcDbSpline
210
0.0
220
0.0
230
1.0
 70
    24
 71
     2
 72
     6
 73
     3
 74
     0
 42
0.000000001
 43
0.0000000001
 40
-1.443375672974057
 40
-1.443375672974057
 40
-1.443375672974057
 40
0.0
 40
0.0
 40
0.0
 10
0.7216878364870314
 20
1.24999999999998
 30
0.0
 10
0.0000000000000026
 20
1.24999999999998
 30
0.0
 10
-0.7216878364870262
 20
1.249999999999981
 30
0.0
  0
SPLINE
  5
18B
330
189
100
AcDbEntity
  8
Default
100
AcDbSpline
210
0.0
220
0.0
230
1.0
 70
    24
 71
     2
 72
     6
 73
     3
 74
     0
 42
0.000000001
 43
0.0000000001
 40
-1.443375672974057
 40
-1.443375672974057
 40
-1.443375672974057
 40
0.0
 40
0.0
 40
0.0
 10
-0.7216878364870741
 20
-1.25000000000001
 30
0.0
 10
-0.0000000000000464
 20
-1.250000000000009
 30
0.0
 10
0.7216878364869814
 20
-1.250000000000009
 30
0.0
  0
ARC
  5
18C
330
189
100
AcDbEntity
  8
Default
100
AcDbCircle
 10
-0.0000000000000002
 20
0.0
 30
-5.749999999999999
 40
2.499999999999999
100
AcDbArc
 50
0.0
 51
180.0
  0
ARC
  5
18D
330
189
100
AcDbEntity
  8
Default
100
AcDbCircle
 10
-0.0000000000000004
 20
0.0
 30
-5.749999999999999
 40
2.5
100
AcDbArc
 50
180.0
 51
0.0
  0
ARC
  5
18E
330
189
100
AcDbEntity
  8
Default
100
AcDbCircle
 10
0.0
 20
0.0
 30
-0.3499999999999981
 40
2.5
100
AcDbArc
 50
0.000000000000007
 51
180.0
  0
ARC
  5
18F
330
189
100
AcDbEntity
  8
Default
100
AcDbCircle
 10
0.0
 20
0.0
 30
-0.3499999999999981
 40
2.5
100
AcDbArc
 50
180.0
 51
0.0
  0
LINE
  5
190
330
189
100
AcDbEntity
  8
Default
100
AcDbLine
 10
2.499999999999999
 20
0.0
 30
-5.749999999999998
 11
2.5
 21
0.0
 31
-0.3500000000000006
  0
SPLINE
  5
191
330
189
100
AcDbEntity
  8
Default
100
AcDbSpline
210
0.0
220
0.0
230
1.0
 70
    24
 71
     2
 72
     6
 73
     3
 74
     0
 42
0.000000001
 43
0.0000000001
 40
-1.443375672974063
 40
-1.443375672974063
 40
-1.443375672974063
 40
0.0
 40
0.0
 40
0.0
 10
-1.44337567297408
 20
0.0000000000000034
 30
0.0
 10
-1.082531754730577
 20
-0.6250000000000032
 30
0.0
 10
-0.7216878364870741
 20
-1.25000000000001
 30
0.0
  0
SPLINE
  5
192
330
189
100
AcDbEntity
  8
Default
100
AcDbSpline
210
0.0
220
0.0
230
1.0
 70
    24
 71
     2
 72
     6
 73
     3
 74
     0
 42
0.000000001
 43
0.0000000001
 40
-2.5
 40
-2.5
 40
-2.5
 40
0.0
 40
0.0
 40
0.0
 10
-0.7216878364870741
 20
-1.25000000000001
 30
0.0
 10
-0.7216878364870741
 20
-1.25000000000001
 30
-1.25
 10
-0.7216878364870741
 20
-1.25000000000001
 30
-2.5
  0
SPLINE
  5
193
330
189
100
AcDbEntity
  8
Default
100
AcDbSpline
210
0.0
220
0.0
230
1.0
 70
    24
 71
     2
 72
     6
 73
     3
 74
     0
 42
0.000000001
 43
0.0000000001
 40
0.0
 40
0.0
 40
0.0
 40
1.443375672974063
 40
1.443375672974063
 40
1.443375672974063
 10
-0.7216878364870741
 20
-1.25000000000001
 30
-2.5
 10
-1.082531754730577
 20
-0.6250000000000033
 30
-2.5
 10
-1.44337567297408
 20
0.0000000000000034
 30
-2.5
  0
SPLINE
  5
194
330
189
100
AcDbEntity
  8
Default
100
AcDbSpline
210
0.0
220
0.0
230
1.0
 70
    24
 71
     2
 72
     6
 73
     3
 74
     0
 42
0.000000001
 43
0.0000000001
 40
0.0
 40
0.0
 40
0.0
 40
2.5
 40
2.5
 40
2.5
 10
-1.44337567297408
 20
0.0000000000000034
 30
-2.5
 10
-1.44337567297408
 20
0.0000000000000034
 30
-1.25
 10
-1.44337567297408
 20
0.0000000000000034
 30
0.0
  0
SPLINE
  5
195
330
189
100
AcDbEntity
  8
Default
100
AcDbSpline
210
0.0
220
0.0
230
1.0
 70
    24
 71
     2
 72
     6
 73
     3
 74
     0
 42
0.000000001
 43
0.0000000001
 40
-1.443375672974056
 40
-1.443375672974056
 40
-1.443375672974056
 40
0.0
 40
0.0
 40
0.0
 10
-0.7216878364870262
 20
1.249999999999981
 30
0.0
 10
-1.082531754730553
 20
0.6249999999999921
 30
0.0
 10
-1.44337567297408
 20
0.0000000000000034
 30
0.0
  0
SPLINE
  5
196
330
189
100
AcDbEntity
  8
Default
100
AcDbSpline
210
0.0
220
0.0
230
1.0
 70
    24
 71
     2
 72
     6
 73
     3
 74
     0
 42
0.000000001
 43
0.0000000001
 40
0.0
 40
0.0
 40
0.0
 40
1.443375672974056
 40
1.443375672974056
 40
1.443375672974056
 10
-1.44337567297408
 20
0.0000000000000034
 30
-2.5
 10
-1.082531754730553
 20
0.6249999999999921
 30
-2.5
 10
-0.7216878364870262
 20
1.249999999999981
 30
-2.5
  0
SPLINE
  5
197
330
189
100
AcDbEntity
  8
Default
100
AcDbSpline
210
0.0
220
0.0
230
1.0
 70
    24
 71
     2
 72
     6
 73
     3
 74
     0
 42
0.000000001
 43
0.0000000001
 40
0.0
 40
0.0
 40
0.0
 40
2.5
 40
2.5
 40
2.5
 10
-0.7216878364870262
 20
1.249999999999981
 30
-2.5
 10
-0.7216878364870262
 20
1.249999999999981
 30
-1.25
 10
-0.7216878364870262
 20
1.249999999999981
 30
0.0
  0
SPLINE
  5
198
330
189
100
AcDbEntity
  8
Default
100
AcDbSpline
210
0.0
220
0.0
230
1.0
 70
    24
 71
     2
 72
     6
 73
     3
 74
     0
 42
0.000000001
 43
0.0000000001
 40
0.0
 40
0.0
 40
0.0
 40
1.443375672974057
 40
1.443375672974057
 40
1.443375672974057
 10
-0.7216878364870262
 20
1.249999999999981
 30
-2.5
 10
0.0000000000000026
 20
1.24999999999998
 30
-2.5
 10
0.7216878364870314
 20
1.24999999999998
 30
-2.5
  0
SPLINE
  5
199
330
189
100
AcDbEntity
  8
Default
100
AcDbSpline
210
0.0
220
0.0
230
1.0
 70
    24
 71
     2
 72
     6
 73
     3
 74
     0
 42
0.000000001
 43
0.0000000001
 40
0.0
 40
0.0
 40
0.0
 40
2.5
 40
2.5
 40
2.5
 10
0.7216878364870314
 20
1.24999999999998
 30
-2.5
 10
0.7216878364870314
 20
1.24999999999998
 30
-1.25
 10
0.7216878364870314
 20
1.24999999999998
 30
0.0
  0
SPLINE
  5
19A
330
189
100
AcDbEntity
  8
Default
100
AcDbSpline
210
0.0
220
0.0
230
1.0
 70
    24
 71
     2
 72
     6
 73
     3
 74
     0
 42
0.000000001
 43
0.0000000001
 40
-1.443375672974052
 40
-1.443375672974052
 40
-1.443375672974052
 40
0.0
 40
0.0
 40
0.0
 10
1.44337567297403
 20
-0.0000000000000252
 30
0.0
 10
1.082531754730531
 20
0.6249999999999772
 30
0.0
 10
0.7216878364870314
 20
1.24999999999998
 30
0.0
  0
SPLINE
  5
19B
330
189
100
AcDbEntity
  8
Default
100
AcDbSpline
210
0.0
220
0.0
230
1.0
 70
    24
 71
     2
 72
     6
 73
     3
 74
     0
 42
0.000000001
 43
0.0000000001
 40
0.0
 40
0.0
 40
0.0
 40
1.443375672974052
 40
1.443375672974052
 40
1.443375672974052
 10
0.7216878364870314
 20
1.24999999999998
 30
-2.5
 10
1.082531754730531
 20
0.6249999999999772
 30
-2.5
 10
1.44337567297403
 20
-0.0000000000000252
 30
-2.5
  0
SPLINE
  5
19C
330
189
100
AcDbEntity
  8
Default
100
AcDbSpline
210
0.0
220
0.0
230
1.0
 70
    24
 71
     2
 72
     6
 73
     3
 74
     0
 42
0.000000001
 43
0.0000000001
 40
0.0
 40
0.0
 40
0.0
 40
2.5
 40
2.5
 40
2.5
 10
1.44337567297403
 20
-0.0000000000000252
 30
-2.5
 10
1.44337567297403
 20
-0.0000000000000252
 30
-1.25
 10
1.44337567297403
 20
-0.0000000000000252
 30
0.0
  0
SPLINE
  5
19D
330
189
100
AcDbEntity
  8
Default
100
AcDbSpline
210
0.0
220
0.0
230
1.0
 70
    24
 71
     2
 72
     6
 73
     3
 74
     0
 42
0.000000001
 43
0.0000000001
 40
-1.443375672974059
 40
-1.443375672974059
 40
-1.443375672974059
 40
0.0
 40
0.0
 40
0.0
 10
0.7216878364869814
 20
-1.250000000000009
 30
0.0
 10
1.082531754730506
 20
-0.6250000000000169
 30
0.0
 10
1.44337567297403
 20
-0.0000000000000252
 30
0.0
  0
SPLINE
  5
19E
330
189
100
AcDbEntity
  8
Default
100
AcDbSpline
210
0.0
220
0.0
230
1.0
 70
    24
 71
     2
 72
     6
 73
     3
 74
     0
 42
0.000000001
 43
0.0000000001
 40
0.0
 40
0.0
 40
0.0
 40
1.443375672974059
 40
1.443375672974059
 40
1.443375672974059
 10
1.44337567297403
 20
-0.0000000000000252
 30
-2.5
 10
1.082531754730506
 20
-0.6250000000000168
 30
-2.5
 10
0.7216878364869814
 20
-1.250000000000008
 30
-2.5
  0
SPLINE
  5
19F
330
189
100
AcDbEntity
  8
Default
100
AcDbSpline
210
0.0
220
0.0
230
1.0
 70
    24
 71
     2
 72
     6
 73
     3
 74
     0
 42
0.000000001
 43
0.0000000001
 40
0.0
 40
0.0
 40
0.0
 40
2.5
 40
2.5
 40
2.5
 10
0.7216878364869814
 20
-1.250000000000008
 30
-2.5
 10
0.7216878364869814
 20
-1.250000000000008
 30
-1.25
 10
0.7216878364869814
 20
-1.250000000000009
 30
0.0
  0
SPLINE
  5
1A0
330
189
100
AcDbEntity
  8
Default
100
AcDbSpline
210
0.0
220
0.0
230
1.0
 70
    24
 71
     2
 72
     6
 73
     3
 74
     0
 42
0.000000001
 43
0.0000000001
 40
0.0
 40
0.0
 40
0.0
 40
1.443375672974057
 40
1.443375672974057
 40
1.443375672974057
 10
0.7216878364869814
 20
-1.250000000000008
 30
-2.5
 10
-0.0000000000000464
 20
-1.250000000000009
 30
-2.5
 10
-0.7216878364870741
 20
-1.25000000000001
 30
-2.5
  0
ARC
  5
1A1
330
189
100
AcDbEntity
  8
Default
100
AcDbCircle
 10
0.0
 20
0.0
 30
-0.0000000000000002
 40
2.149999999999999
100
AcDbArc
 50
0.000000000000007
 51
180.0
  0
ARC
  5
1A2
330
189
100
AcDbEntity
  8
Default
100
AcDbCircle
 10
-0.0000000000000002
 20
0.0
 30
-0.0000000000000002
 40
2.149999999999999
100
AcDbArc
 50
180.0
 51
0.0
  0
LINE
  5
1A3
330
189
100
AcDbEntity
  8
Default
100
AcDbLine
 10
-2.15
 20
-0.0000000000000001
 30
-0.0000000000000003
 11
-2.5
 21
0.0
 31
-0.3499999999999955
  0
ARC
  5
1A4
330
189
100
AcDbEntity
  8
Default
100
AcDbCircle
 10
0.0
 20
0.0
 30
-8.0
 40
0.25
100
AcDbArc
 50
0.0
 51
180.0
  0
ARC
  5
1A5
330
189
100
AcDbEntity
  8
Default
100
AcDbCircle
 10
0.0
 20
0.0
 30
-8.0
 40
0.25
100
AcDbArc
 50
180.0
 51
0.0
  0
LINE
  5
1A6
330
189
100
AcDbEntity
  8
Default
100
AcDbLine
 10
0.25
 20
0.0
 30
-8.0
 11
2.499999999999999
 21
0.0
 31
-5.749999999999998
  0
LINE
  5
1A7
330
189
100
AcDbEntity
  8
Default
100
AcDbLine
 10
2.15
 20
-0.0000000000000002
 30
0.0
 11
1.443375672974015
 21
-0.0000000000000002
 31
0.0
  0
LINE
  5
1A8
330
189
100
AcDbEntity
  8
Default
100
AcDbLine
 10
-1.443375672974078
 20
-0.0000000000000002
 30
0.0
 11
-2.149999999999999
 21
-0.0000000000000002
 31
0.0
  0
LINE
  5
1A9
330
189
100
AcDbEntity
  8
Default
100
AcDbLine
 10
0.0000000000000002
 20
-2.149999999999999
 30
0.0
 11
0.0000000000000002
 21
-1.25000000000001
 31
0.0
  0
LINE
  5
1AA
330
189
100
AcDbEntity
  8
Default
100
AcDbLine
 10
0.0000000000000002
 20
1.24999999999998
 30
0.0
 11
0.0000000000000002
 21
2.149999999999999
 31
0.0
  0
CIRCLE
  5
1AB
330
189
100
AcDbEntity
  8
Default
100
AcDbCircle
 10
0.0
 20
0.0
 30
-3.049999999999999
 40
2.5
  0
LINE
  5
1AC
330
189
100
AcDbEntity
  8
Default
100
AcDbLine
 10
0.0
 20
2.5
 30
-5.75
 11
0.0
 21
2.5
 31
-0.3499999999999993
  0
LINE
  5
1AD
330
189
100
AcDbEntity
  8
Default
100
AcDbLine
 10
-2.5
 20
0.0
 30
-5.75
 11
-2.5
 21
0.0
 31
-0.3499999999999993
  0
LINE
  5
1AE
330
189
100
AcDbEntity
  8
Default
100
AcDbLine
 10
0.0
 20
-2.5
 30
-5.75
 11
0.0
 21
-2.5
 31
-0.3499999999999993
  0
LINE
  5
1AF
330
189
100
AcDbEntity
  8
Default
100
AcDbLine
 10
-0.7216878364870747
 20
-1.25000000000001
 30
-1.25
 11
-1.44337567297408
 21
0.0000000000000034
 31
-1.25
  0
LINE
  5
1B0
330
189
100
AcDbEntity
  8
Default
100
AcDbLine
 10
-1.082531754730577
 20
-0.6250000000000034
 30
-2.5
 11
-1.082531754730577
 21
-0.6250000000000034
 31
0.0000000000000001
  0
LINE
  5
1B1
330
189
100
AcDbEntity
  8
Default
100
AcDbLine
 10
-1.44337567297408
 20
0.0000000000000034
 30
-1.25
 11
-0.7216878364870286
 21
1.249999999999983
 31
-1.25
  0
LINE
  5
1B2
330
189
100
AcDbEntity
  8
Default
100
AcDbLine
 10
-1.082531754730554
 20
0.624999999999993
 30
-2.5
 11
-1.082531754730554
 21
0.624999999999993
 31
0.0000000000000001
  0
LINE
  5
1B3
330
189
100
AcDbEntity
  8
Default
100
AcDbLine
 10
0.0000000000000036
 20
1.24999999999998
 30
0.0
 11
0.0000000000000036
 21
1.24999999999998
 31
-2.5
  0
LINE
  5
1B4
330
189
100
AcDbEntity
  8
Default
100
AcDbLine
 10
-0.721687836487025
 20
1.24999999999998
 30
-1.25
 11
0.7216878364870319
 21
1.24999999999998
 31
-1.25
  0
LINE
  5
1B5
330
189
100
AcDbEntity
  8
Default
100
AcDbLine
 10
0.72168783648703
 20
1.249999999999979
 30
-1.25
 11
1.44337567297403
 21
-0.000000000000025
 31
-1.25
  0
LINE
  5
1B6
330
189
100
AcDbEntity
  8
Default
100
AcDbLine
 10
1.08253175473053
 20
0.6249999999999768
 30
-2.5
 11
1.08253175473053
 21
0.6249999999999768
 31
0.0000000000000001
  0
LINE
  5
1B7
330
189
100
AcDbEntity
  8
Default
100
AcDbLine
 10
1.44337567297403
 20
-0.0000000000000252
 30
-1.25
 11
0.7216878364869782
 21
-1.250000000000007
 31
-1.25
  0
LINE
  5
1B8
330
189
100
AcDbEntity
  8
Default
100
AcDbLine
 10
1.082531754730504
 20
-0.6250000000000162
 30
-2.5
 11
1.082531754730504
 21
-0.6250000000000162
 31
0.0000000000000001
  0
LINE
  5
1B9
330
189
100
AcDbEntity
  8
Default
100
AcDbLine
 10
0.721687836486983
 20
-1.25000000000001
 30
-1.25
 11
-0.721687836487074
 21
-1.25000000000001
 31
-1.25
  0
LINE
  5
1BA
330
189
100
AcDbEntity
  8
Default
100
AcDbLine
 10
-0.0000000000000455
 20
-1.25000000000001
 30
-2.5
 11
-0.0000000000000455
 21
-1.25000000000001
 31
0.0000000000000001
  0
LINE
  5
1BB
330
189
100
AcDbEntity
  8
Default
100
AcDbLine
 10
1.443375672974024
 20
-0.0000000000000149
 30
-2.5
 11
-1.44337567297407
 21
-0.0000000000000149
 31
-2.5
  0
LINE
  5
1BC
330
189
100
AcDbEntity
  8
Default
100
AcDbLine
 10
-0.0000000000000253
 20
-1.25000000000001
 30
-2.5
 11
-0.0000000000000253
 21
1.24999999999998
 31
-2.5
  0
LINE
  5
1BD
330
189
100
AcDbEntity
  8
Default
100
AcDbLine
 10
0.0
 20
2.149999999999999
 30
-0.0000000000000003
 11
0.0
 21
2.5
 31
-0.3500000000000004
  0
LINE
  5
1BE
330
189
100
AcDbEntity
  8
Default
100
AcDbLine
 10
2.149999999999999
 20
0.0
 30
-0.0000000000000003
 11
2.5
 21
0.0
 31
-0.3500000000000004
  0
LINE
  5
1BF
330
189
100
AcDbEntity
  8
Default
100
AcDbLine
 10
0.0
 20
-2.149999999999999
 30
-0.0000000000000003
 11
0.0
 21
-2.5
 31
-0.3500000000000004
  0
CIRCLE
  5
1C0
330
189
100
AcDbEntity
  8
Default
100
AcDbCircle
 10
0.0
 20
0.0
 30
-6.845
 40
1.404999999999999
  0
LINE
  5
1C1
330
189
100
AcDbEntity
  8
Default
100
AcDbLine
 10
0.0
 20
0.25
 30
-8.0
 11
0.0
 21
2.499999999999999
 31
-5.749999999999999
  0
LINE
  5
1C2
330
189
100
AcDbEntity
  8
Default
100
AcDbLine
 10
-0.2499999999999999
 20
0.0
 30
-8.0
 11
-2.499999999999999
 21
0.0
 31
-5.749999999999999
  0
LINE
  5
1C3
330
189
100
AcDbEntity
  8
Default
100
AcDbLine
 10
0.0
 20
-0.2499999999999999
 30
-8.0
 11
0.0
 21
-2.499999999999999
 31
-5.749999999999999
  0
LINE
  5
1C4
330
189
100
AcDbEntity
  8
Default
100
AcDbLine
 10
0.2499999999999999
 20
0.0
 30
-8.0
 11
-0.2499999999999999
 21
0.0
 31
-8.0
  0
LINE
  5
1C5
330
189
100
AcDbEntity
  8
Default
100
AcDbLine
 10
0.0
 20
-0.2499999999999999
 30
-8.0
 11
0.0
 21
0.2499999999999999
 31
-8.0
  0
ENDBLK
  5
1C7
330
189
100
AcDbEntity
  8
0
100
AcDbBlockEnd
  0
BLOCK
  5
1FC
330
1C9
100
AcDbEntity
  8
0
100
AcDbBlockBegin
  2
10IN10360YY
 70
     0
 10
0.0
 20
0.0
 30
0.0
  3
10IN10360YY
  1
10IN10360YY
  0
ARC
  5
1CA
330
1C9
100
AcDbEntity
  8
Default
100
AcDbCircle
 10
0.0000000000000031
 20
0.0
 30
-1.000000000000001
 40
7.0
100
AcDbArc
 50
0.0
 51
180.0
  0
ARC
  5
1CB
330
1C9
100
AcDbEntity
  8
Default
100
AcDbCircle
 10
0.0000000000000036
 20
0.0
 30
-1.000000000000001
 40
7.0
100
AcDbArc
 50
180.0
 51
0.0
  0
ARC
  5
1CC
330
1C9
100
AcDbEntity
  8
Default
100
AcDbCircle
 10
0.0000000000000031
 20
0.0
 30
8.0
 40
7.0
100
AcDbArc
 50
180.0
 51
0.0
  0
ARC
  5
1CD
330
1C9
100
AcDbEntity
  8
Default
100
AcDbCircle
 10
0.0000000000000036
 20
0.0
 30
8.0
 40
7.0
100
AcDbArc
 50
0.000000000000007
 51
180.0
  0
LINE
  5
1CE
330
1C9
100
AcDbEntity
  8
Default
100
AcDbLine
 10
-6.999999999999997
 20
-0.0000000000000003
 30
8.0
 11
-6.999999999999997
 21
-0.0000000000000003
 31
-1.000000000000002
  0
SPLINE
  5
1CF
330
1C9
100
AcDbEntity
  8
Default
100
AcDbSpline
210
0.0
220
0.0
230
1.0
 70
    24
 71
     2
 72
     6
 73
     3
 74
     0
 42
0.000000001
 43
0.0000000001
 40
-7.1
 40
-7.1
 40
-7.1
 40
0.0
 40
0.0
 40
0.0
 10
-3.549999999999999
 20
4.0
 30
-1.0
 10
0.0
 20
4.0
 30
-1.0
 10
3.549999999999999
 20
4.0
 30
-1.0
  0
SPLINE
  5
1D0
330
1C9
100
AcDbEntity
  8
Default
100
AcDbSpline
210
0.0
220
0.0
230
1.0
 70
    24
 71
     2
 72
     6
 73
     3
 74
     0
 42
0.000000001
 43
0.0000000001
 40
-9.0
 40
-9.0
 40
-9.0
 40
0.0
 40
0.0
 40
0.0
 10
3.549999999999999
 20
4.0
 30
-1.0
 10
3.549999999999999
 20
4.0
 30
3.5
 10
3.549999999999999
 20
4.0
 30
8.0
  0
SPLINE
  5
1D1
330
1C9
100
AcDbEntity
  8
Default
100
AcDbSpline
210
0.0
220
0.0
230
1.0
 70
    24
 71
     2
 72
     6
 73
     3
 74
     0
 42
0.000000001
 43
0.0000000001
 40
0.0
 40
0.0
 40
0.0
 40
7.1
 40
7.1
 40
7.1
 10
3.549999999999999
 20
4.0
 30
8.0
 10
0.0
 20
4.0
 30
8.0
 10
-3.549999999999999
 20
4.0
 30
8.0
  0
SPLINE
  5
1D2
330
1C9
100
AcDbEntity
  8
Default
100
AcDbSpline
210
0.0
220
0.0
230
1.0
 70
    24
 71
     2
 72
     6
 73
     3
 74
     0
 42
0.000000001
 43
0.0000000001
 40
0.0
 40
0.0
 40
0.0
 40
9.0
 40
9.0
 40
9.0
 10
-3.549999999999999
 20
4.0
 30
8.0
 10
-3.549999999999999
 20
4.0
 30
3.5
 10
-3.549999999999999
 20
4.0
 30
-1.0
  0
SPLINE
  5
1D3
330
1C9
100
AcDbEntity
  8
Default
100
AcDbSpline
210
0.0
220
0.0
230
1.0
 70
    24
 71
     2
 72
     6
 73
     3
 74
     0
 42
0.000000001
 43
0.0000000001
 40
-8.0
 40
-8.0
 40
-8.0
 40
0.0
 40
0.0
 40
0.0
 10
-3.549999999999999
 20
-4.0
 30
-1.0
 10
-3.549999999999999
 20
0.0
 30
-1.0
 10
-3.549999999999999
 20
4.0
 30
-1.0
  0
SPLINE
  5
1D4
330
1C9
100
AcDbEntity
  8
Default
100
AcDbSpline
210
0.0
220
0.0
230
1.0
 70
    24
 71
     2
 72
     6
 73
     3
 74
     0
 42
0.000000001
 43
0.0000000001
 40
0.0
 40
0.0
 40
0.0
 40
8.0
 40
8.0
 40
8.0
 10
-3.549999999999999
 20
4.0
 30
8.0
 10
-3.549999999999999
 20
0.0
 30
8.0
 10
-3.549999999999999
 20
-4.0
 30
8.0
  0
SPLINE
  5
1D5
330
1C9
100
AcDbEntity
  8
Default
100
AcDbSpline
210
0.0
220
0.0
230
1.0
 70
    24
 71
     2
 72
     6
 73
     3
 74
     0
 42
0.000000001
 43
0.0000000001
 40
0.0
 40
0.0
 40
0.0
 40
9.0
 40
9.0
 40
9.0
 10
-3.549999999999999
 20
-4.0
 30
8.0
 10
-3.549999999999999
 20
-4.0
 30
3.5
 10
-3.549999999999999
 20
-4.0
 30
-1.0
  0
SPLINE
  5
1D6
330
1C9
100
AcDbEntity
  8
Default
100
AcDbSpline
210
0.0
220
0.0
230
1.0
 70
    24
 71
     2
 72
     6
 73
     3
 74
     0
 42
0.000000001
 43
0.0000000001
 40
-7.1
 40
-7.1
 40
-7.1
 40
0.0
 40
0.0
 40
0.0
 10
3.549999999999999
 20
-4.0
 30
-1.0
 10
0.0
 20
-4.0
 30
-1.0
 10
-3.549999999999999
 20
-4.0
 30
-1.0
  0
SPLINE
  5
1D7
330
1C9
100
AcDbEntity
  8
Default
100
AcDbSpline
210
0.0
220
0.0
230
1.0
 70
    24
 71
     2
 72
     6
 73
     3
 74
     0
 42
0.000000001
 43
0.0000000001
 40
0.0
 40
0.0
 40
0.0
 40
7.1
 40
7.1
 40
7.1
 10
-3.549999999999999
 20
-4.0
 30
8.0
 10
0.0
 20
-4.0
 30
8.0
 10
3.549999999999999
 20
-4.0
 30
8.0
  0
SPLINE
  5
1D8
330
1C9
100
AcDbEntity
  8
Default
100
AcDbSpline
210
0.0
220
0.0
230
1.0
 70
    24
 71
     2
 72
     6
 73
     3
 74
     0
 42
0.000000001
 43
0.0000000001
 40
0.0
 40
0.0
 40
0.0
 40
9.0
 40
9.0
 40
9.0
 10
3.549999999999999
 20
-4.0
 30
8.0
 10
3.549999999999999
 20
-4.0
 30
3.5
 10
3.549999999999999
 20
-4.0
 30
-1.0
  0
SPLINE
  5
1D9
330
1C9
100
AcDbEntity
  8
Default
100
AcDbSpline
210
0.0
220
0.0
230
1.0
 70
    24
 71
     2
 72
     6
 73
     3
 74
     0
 42
0.000000001
 43
0.0000000001
 40
-8.0
 40
-8.0
 40
-8.0
 40
0.0
 40
0.0
 40
0.0
 10
3.549999999999999
 20
4.0
 30
-1.0
 10
3.549999999999999
 20
0.0
 30
-1.0
 10
3.549999999999999
 20
-4.0
 30
-1.0
  0
SPLINE
  5
1DA
330
1C9
100
AcDbEntity
  8
Default
100
AcDbSpline
210
0.0
220
0.0
230
1.0
 70
    24
 71
     2
 72
     6
 73
     3
 74
     0
 42
0.000000001
 43
0.0000000001
 40
0.0
 40
0.0
 40
0.0
 40
8.0
 40
8.0
 40
8.0
 10
3.549999999999999
 20
-4.0
 30
8.0
 10
3.549999999999999
 20
0.0
 30
8.0
 10
3.549999999999999
 20
4.0
 30
8.0
  0
ARC
  5
1DB
330
1C9
100
AcDbEntity
  8
Default
100
AcDbCircle
 10
-0.0000000000000448
 20
3.500000000000021
 30
-4.0
 40
2.6
210
0.0
220
1.0
230
1.708035422500241E-16
100
AcDbArc
 50
90.00000000000001
 51
270.0
  0
ARC
  5
1DC
330
1C9
100
AcDbEntity
  8
Default
100
AcDbCircle
 10
-0.0000000000000448
 20
3.50000000000002
 30
-4.0
 40
2.6
210
0.0
220
1.0
230
0.0
100
AcDbArc
 50
270.0
 51
90.0
  0
SPLINE
  5
1DD
330
1C9
100
AcDbEntity
  8
Default
100
AcDbSpline
 70
     0
 71
     3
 72
    14
 73
    10
 74
     0
 42
0.000000001
 43
0.0000000001
 40
0.5
 40
0.5
 40
0.5
 40
0.5
 40
0.6249795277862401
 40
0.6249795277862401
 40
0.749998655114117
 40
0.749998655114117
 40
0.8750205411380778
 40
0.8750205411380778
 40
1.0
 40
1.0
 40
1.0
 40
1.0
 10
0.0008720449119322
 20
-6.999999945681262
 30
0.9000001462427816
 10
-0.7358167842681743
 20
-7.000091720788438
 30
0.8997530594038337
 10
-1.38142529245066
 20
-6.878812235731981
 30
1.203486849684968
 10
-2.299615365492029
 20
-6.628590898555641
 30
2.123647822404326
 10
-2.59986644381474
 20
-6.499280932143487
 30
2.761129348591062
 10
-2.600133474127024
 20
-6.499180581625504
 30
4.237946708586556
 10
-2.300022711330797
 20
-6.628435153214078
 30
4.875666032215928
 10
-1.382136678040967
 20
-6.878663015509606
 30
5.796077733343561
 10
-0.7366576354437346
 20
-7.000000000000081
 30
6.100000000000021
 10
0.0000000000000287
 20
-7.0
 30
6.100000000000021
  0
SPLINE
  5
1DE
330
1C9
100
AcDbEntity
  8
Default
100
AcDbSpline
 70
     0
 71
     3
 72
    14
 73
    10
 74
     0
 42
0.000000001
 43
0.0000000001
 40
0.0
 40
0.0
 40
0.0
 40
0.0
 40
0.1249764716210895
 40
0.1249764716210895
 40
0.2499869971404936
 40
0.2499869971404936
 40
0.3750178344715321
 40
0.3750178344715321
 40
0.5
 40
0.5
 40
0.5
 40
0.5
 10
0.0000000000000287
 20
-7.0
 30
6.100000000000021
 10
0.7365488314452402
 20
-7.0
 30
6.100000000000021
 10
1.381855666514974
 20
-6.878715495932646
 30
5.796219734108993
 10
2.299715280209561
 20
-6.628543109932631
 30
4.876114046415027
 10
2.599878170841173
 20
-6.499283370929644
 30
4.2385933297237
 10
2.600121778166945
 20
-6.499178088576847
 30
2.762144709138131
 10
2.300152968235643
 20
-6.628378823089474
 30
2.124602882060544
 10
1.382580799170711
 20
-6.878562742767043
 30
1.204229447780818
 10
0.7373667205864853
 20
-6.999908194761312
 30
0.9002471679622732
 10
0.0008720449119322
 20
-6.999999945681262
 30
0.9000001462427816
  0
LINE
  5
1DF
330
1C9
100
AcDbEntity
  8
Default
100
AcDbLine
 10
0.0000000000000287
 20
-7.0
 30
6.100000000000021
 11
0.0000000000000447
 21
-4.000000000000001
 31
6.10000000000002
  0
ARC
  5
1E0
330
1C9
100
AcDbEntity
  8
Default
100
AcDbCircle
 10
0.0000000000000033
 20
0.0
 30
3.5
 40
7.0
100
AcDbArc
 50
291.8037482371807
 51
180.0
  0
ARC
  5
1E1
330
1C9
100
AcDbEntity
  8
Default
100
AcDbCircle
 10
0.0000000000000033
 20
0.0
 30
3.5
 40
7.0
100
AcDbArc
 50
180.0
 51
248.1962512909516
  0
LINE
  5
1E2
330
1C9
100
AcDbEntity
  8
Default
100
AcDbLine
 10
0.0000000000000033
 20
7.0
 30
8.0
 11
0.0000000000000033
 21
7.0
 31
-1.0
  0
LINE
  5
1E3
330
1C9
100
AcDbEntity
  8
Default
100
AcDbLine
 10
7.000000000000003
 20
0.0
 30
8.0
 11
7.000000000000003
 21
0.0
 31
-1.0
  0
LINE
  5
1E4
330
1C9
100
AcDbEntity
  8
Default
100
AcDbLine
 10
0.0000000000000033
 20
-7.0
 30
8.0
 11
0.0000000000000033
 21
-7.0
 31
6.10000000000002
  0
LINE
  5
1E5
330
1C9
100
AcDbEntity
  8
Default
100
AcDbLine
 10
0.0000000000000033
 20
-7.0
 30
0.8999999746642466
 11
0.0000000000000033
 21
-7.0
 31
-1.000000000000001
  0
LINE
  5
1E6
330
1C9
100
AcDbEntity
  8
Default
100
AcDbLine
 10
0.0
 20
4.0
 30
8.0
 11
0.0
 21
4.0
 31
-1.0
  0
LINE
  5
1E7
330
1C9
100
AcDbEntity
  8
Default
100
AcDbLine
 10
-3.55
 20
4.0
 30
3.5
 11
3.55
 21
4.0
 31
3.5
  0
LINE
  5
1E8
330
1C9
100
AcDbEntity
  8
Default
100
AcDbLine
 10
-3.55
 20
-0.0000000000000009
 30
8.0
 11
-3.55
 21
-0.0000000000000009
 31
-1.0
  0
LINE
  5
1E9
330
1C9
100
AcDbEntity
  8
Default
100
AcDbLine
 10
-3.55
 20
-4.0
 30
3.5
 11
-3.55
 21
4.000000000000001
 31
3.5
  0
LINE
  5
1EA
330
1C9
100
AcDbEntity
  8
Default
100
AcDbLine
 10
0.0
 20
-4.0
 30
-1.0
 11
0.0
 21
-4.0
 31
0.900000000000021
  0
LINE
  5
1EB
330
1C9
100
AcDbEntity
  8
Default
100
AcDbLine
 10
0.0
 20
-4.0
 30
6.100000000000019
 11
0.0
 21
-4.0
 31
8.0
  0
LINE
  5
1EC
330
1C9
100
AcDbEntity
  8
Default
100
AcDbLine
 10
-3.549999999999999
 20
-4.0
 30
3.5
 11
-2.599999999999954
 21
-4.0
 31
3.5
  0
LINE
  5
1ED
330
1C9
100
AcDbEntity
  8
Default
100
AcDbLine
 10
2.600000000000044
 20
-4.0
 30
3.5
 11
3.55
 21
-4.0
 31
3.5
  0
LINE
  5
1EE
330
1C9
100
AcDbEntity
  8
Default
100
AcDbLine
 10
3.55
 20
0.0000000000000009
 30
-1.0
 11
3.55
 21
0.0000000000000009
 31
8.0
  0
LINE
  5
1EF
330
1C9
100
AcDbEntity
  8
Default
100
AcDbLine
 10
3.55
 20
-4.000000000000001
 30
3.5
 11
3.55
 21
4.0
 31
3.5
  0
LINE
  5
1F0
330
1C9
100
AcDbEntity
  8
Default
100
AcDbLine
 10
7.000000000000004
 20
0.0
 30
8.0
 11
3.550000000000001
 21
0.0
 31
8.0
  0
LINE
  5
1F1
330
1C9
100
AcDbEntity
  8
Default
100
AcDbLine
 10
-3.549999999999998
 20
0.0
 30
8.0
 11
-6.999999999999996
 21
0.0
 31
8.0
  0
LINE
  5
1F2
330
1C9
100
AcDbEntity
  8
Default
100
AcDbLine
 10
0.0000000000000033
 20
-7.0
 30
8.0
 11
0.0000000000000033
 21
-3.999999999999999
 31
8.0
  0
LINE
  5
1F3
330
1C9
100
AcDbEntity
  8
Default
100
AcDbLine
 10
0.0000000000000033
 20
4.000000000000001
 30
8.0
 11
0.0000000000000033
 21
7.000000000000001
 31
8.0
  0
LINE
  5
1F4
330
1C9
100
AcDbEntity
  8
Default
100
AcDbLine
 10
7.000000000000004
 20
0.0
 30
-1.0
 11
3.550000000000001
 21
0.0
 31
-1.0
  0
LINE
  5
1F5
330
1C9
100
AcDbEntity
  8
Default
100
AcDbLine
 10
-3.549999999999998
 20
0.0
 30
-1.0
 11
-6.999999999999996
 21
0.0
 31
-1.0
  0
LINE
  5
1F6
330
1C9
100
AcDbEntity
  8
Default
100
AcDbLine
 10
0.0000000000000033
 20
-7.0
 30
-1.0
 11
0.0000000000000033
 21
-3.999999999999999
 31
-1.0
  0
LINE
  5
1F7
330
1C9
100
AcDbEntity
  8
Default
100
AcDbLine
 10
0.0000000000000033
 20
4.000000000000001
 30
-1.0
 11
0.0000000000000033
 21
7.000000000000001
 31
-1.0
  0
CIRCLE
  5
1F8
330
1C9
100
AcDbEntity
  8
Default
100
AcDbCircle
 10
-0.0000000000000448
 20
3.50000000000002
 30
-5.500781402509585
 40
2.6
210
0.0
220
1.0
230
0.0
  0
LINE
  5
1F9
330
1C9
100
AcDbEntity
  8
Default
100
AcDbLine
 10
2.600000000000045
 20
-6.499230717261118
 30
3.50000000000002
 11
2.600000000000045
 21
-4.0
 31
3.50000000000002
  0
LINE
  5
1FA
330
1C9
100
AcDbEntity
  8
Default
100
AcDbLine
 10
0.0000000000000448
 20
-7.000000001201325
 30
0.9000000000000199
 11
0.0000000000000448
 21
-4.0
 31
0.9000000000000199
  0
LINE
  5
1FB
330
1C9
100
AcDbEntity
  8
Default
100
AcDbLine
 10
-2.599999999999955
 20
-6.499230742091703
 30
3.50000000000002
 11
-2.599999999999955
 21
-4.0
 31
3.50000000000002
  0
ENDBLK
  5
1FD
330
1C9
100
AcDbEntity
  8
0
100
AcDbBlockEnd
  0
ENDSEC
  0
SECTION
  2
ENTITIES
  0
INSERT
  5
201
330
1F
100
AcDbEntity
  8
Default
100
AcDbBlockReference
  2
3300Y407-A0
 10
0.0
 20
0.0
 30
0.0
 50
90.0
210
0.0
220
0.0
230
-1.0
  0
ENDSEC
  0
SECTION
  2
OBJECTS
  0
DICTIONARY
  5
C
330
0
100
AcDbDictionary
281
     1
  3
ACAD_DETAILVIEWSTYLE
350
23D
  3
ACAD_GROUP
350
D
  3
ACAD_LAYOUT
350
1A
  3
ACAD_MATERIAL
350
43
  3
ACAD_MLEADERSTYLE
350
23C
  3
ACAD_MLINESTYLE
350
17
  3
ACAD_PLOTSETTINGS
350
19
  3
ACAD_PLOTSTYLENAME
350
E
  3
ACAD_SCALELIST
350
47
  3
ACAD_SECTIONVIEWSTYLE
350
23E
  3
ACAD_TABLESTYLE
350
23B
  3
ACAD_VISUALSTYLE
350
2A
  3
AcDbVariableDictionary
350
202
  0
DICTIONARY
  5
23D
102
{ACAD_REACTORS
330
C
102
}
330
C
100
AcDbDictionary
281
     1
  0
DICTIONARY
  5
D
102
{ACAD_REACTORS
330
C
102
}
330
C
100
AcDbDictionary
281
     1
  0
DICTIONARY
  5
1A
102
{ACAD_REACTORS
330
C
102
}
330
C
100
AcDbDictionary
281
     1
  3
Layout1
350
1E
  3
Layout2
350
26
  3
Model
350
22
  0
DICTIONARY
  5
43
102
{ACAD_REACTORS
330
C
102
}
330
C
100
AcDbDictionary
281
     1
  3
ByBlock
350
45
  3
ByLayer
350
44
  3
Global
350
46
  0
DICTIONARY
  5
23C
102
{ACAD_REACTORS
330
C
102
}
330
C
100
AcDbDictionary
281
     1
  0
DICTIONARY
  5
17
102
{ACAD_REACTORS
330
C
102
}
330
C
100
AcDbDictionary
281
     1
  3
Standard
350
18
  0
DICTIONARY
  5
19
102
{ACAD_REACTORS
330
C
102
}
330
C
100
AcDbDictionary
281
     1
  0
ACDBDICTIONARYWDFLT
  5
E
102
{ACAD_REACTORS
330
C
102
}
330
C
100
AcDbDictionary
281
     1
  3
Normal
350
F
100
AcDbDictionaryWithDefault
340
F
  0
DICTIONARY
  5
47
102
{ACAD_REACTORS
330
C
102
}
330
C
100
AcDbDictionary
281
     1
  3
A0
350
48
  3
A1
350
49
  3
A2
350
4A
  3
A3
350
4B
  3
A4
350
4C
  3
A5
350
4D
  3
A6
350
4E
  3
A7
350
4F
  3
A8
350
50
  3
A9
350
51
  3
B0
350
52
  3
B1
350
53
  3
B2
350
54
  3
B3
350
55
  3
B4
350
56
  3
B5
350
57
  3
B6
350
58
  3
B7
350
59
  3
B8
350
5A
  3
B9
350
5B
  3
C0
350
5C
  3
C1
350
5D
  3
C2
350
5E
  3
C3
350
5F
  3
C4
350
60
  3
C5
350
61
  3
C6
350
62
  3
C7
350
63
  3
C8
350
64
  3
C9
350
65
  3
D0
350
66
  3
D1
350
67
  3
D2
350
68
  0
DICTIONARY
  5
23E
102
{ACAD_REACTORS
330
C
102
}
330
C
100
AcDbDictionary
281
     1
  0
DICTIONARY
  5
23B
102
{ACAD_REACTORS
330
C
102
}
330
C
100
AcDbDictionary
281
     1
  0
DICTIONARY
  5
2A
102
{ACAD_REACTORS
330
C
102
}
330
C
100
AcDbDictionary
281
     1
  3
2dWireframe
350
2F
  3
Basic
350
32
  3
Brighten
350
36
  3
ColorChange
350
3A
  3
Conceptual
350
34
  3
Dim
350
35
  3
EdgeColorOff
350
3D
  3
Facepattern
350
39
  3
Flat
350
2B
  3
FlatWithEdges
350
2C
  3
Gouraud
350
2D
  3
GouraudWithEdges
350
2E
  3
Hidden
350
31
  3
JitterOff
350
3B
  3
Linepattern
350
38
  3
OverhangOff
350
3C
  3
Realistic
350
33
  3
Shaded
350
42
  3
Shaded with edges
350
41
  3
Shades of Gray
350
3E
  3
Sketchy
350
3F
  3
Thicken
350
37
  3
Wireframe
350
30
  3
X-Ray
350
40
  0
DICTIONARY
  5
202
102
{ACAD_REACTORS
330
C
102
}
330
C
100
AcDbDictionary
281
     1
  3
CANNOSCALE
350
203
  3
MSLTSCALE
350
204
  0
LAYOUT
  5
1E
102
{ACAD_REACTORS
330
1A
102
}
330
1A
100
AcDbPlotSettings
  1

  2
none_device
  4

  6

 40
0.0
 41
0.0
 42
0.0
 43
0.0
 44
0.0
 45
0.0
 46
0.0
 47
0.0
 48
0.0
 49
0.0
140
0.0
141
0.0
142
1.0
143
1.0
 70
   688
 72
     0
 73
     0
 74
     5
  7

 75
    16
 76
     0
 77
     2
 78
   300
147
1.0
148
0.0
149
0.0
100
AcDbLayout
  1
Layout1
 70
     1
 71
     1
 10
0.0
 20
0.0
 11
12.0
 21
9.0
 12
0.0
 22
0.0
 32
0.0
 14
1.000000000000000E+20
 24
1.000000000000000E+20
 34
1.000000000000000E+20
 15
-1.000000000000000E+20
 25
-1.000000000000000E+20
 35
-1.000000000000000E+20
146
0.0
 13
0.0
 23
0.0
 33
0.0
 16
1.0
 26
0.0
 36
0.0
 17
0.0
 27
1.0
 37
0.0
 76
     0
330
1B
  0
LAYOUT
  5
26
102
{ACAD_REACTORS
330
1A
102
}
330
1A
100
AcDbPlotSettings
  1

  2
none_device
  4

  6

 40
0.0
 41
0.0
 42
0.0
 43
0.0
 44
0.0
 45
0.0
 46
0.0
 47
0.0
 48
0.0
 49
0.0
140
0.0
141
0.0
142
1.0
143
1.0
 70
   688
 72
     0
 73
     0
 74
     5
  7

 75
    16
 76
     0
 77
     2
 78
   300
147
1.0
148
0.0
149
0.0
100
AcDbLayout
  1
Layout2
 70
     1
 71
     2
 10
0.0
 20
0.0
 11
0.0
 21
0.0
 12
0.0
 22
0.0
 32
0.0
 14
0.0
 24
0.0
 34
0.0
 15
0.0
 25
0.0
 35
0.0
146
0.0
 13
0.0
 23
0.0
 33
0.0
 16
1.0
 26
0.0
 36
0.0
 17
0.0
 27
1.0
 37
0.0
 76
     0
330
23
  0
LAYOUT
  5
22
102
{ACAD_REACTORS
330
1A
102
}
330
1A
100
AcDbPlotSettings
  1

  2
none_device
  4
Letter_(8.50_x_11.00_Inches)
  6

 40
6.35
 41
6.35
 42
6.35000508
 43
6.35000508
 44
215.9
 45
279.4
 46
0.0
 47
0.0
 48
0.0
 49
0.0
140
0.0
141
0.0
142
1.0
143
1.0
 70
  1712
 72
     0
 73
     0
 74
     0
  7

 75
     0
 76
     0
 77
     2
 78
   300
147
1.0
148
0.0
149
0.0
100
AcDbLayout
  1
Model
 70
     1
 71
     0
 10
0.0
 20
0.0
 11
12.0
 21
9.0
 12
0.0
 22
0.0
 32
0.0
 14
-32.50000000000002
 24
-55.20000000000002
 34
-7.999999999999986
 15
32.5
 25
32.50000000000003
 35
67.00000000000009
146
0.0
 13
0.0
 23
0.0
 33
0.0
 16
1.0
 26
0.0
 36
0.0
 17
0.0
 27
1.0
 37
0.0
 76
     0
330
1F
331
29
  0
MATERIAL
  5
45
102
{ACAD_REACTORS
330
43
102
}
102
{ACAD_XDICTIONARY
360
237
102
}
330
43
100
AcDbMaterial
  1
ByBlock
  0
MATERIAL
  5
44
102
{ACAD_REACTORS
330
43
102
}
102
{ACAD_XDICTIONARY
360
235
102
}
330
43
100
AcDbMaterial
  1
ByLayer
  0
MATERIAL
  5
46
102
{ACAD_REACTORS
330
43
102
}
102
{ACAD_XDICTIONARY
360
239
102
}
330
43
100
AcDbMaterial
  1
Global
  0
MLINESTYLE
  5
18
102
{ACAD_REACTORS
330
17
102
}
330
17
100
AcDbMlineStyle
  2
Standard
 70
     0
  3

 62
   256
 51
90.0
 52
90.0
 71
     2
 49
0.5
 62
   256
  6
BYLAYER
 49
-0.5
 62
   256
  6
BYLAYER
  0
ACDBPLACEHOLDER
  5
F
102
{ACAD_REACTORS
330
E
102
}
330
E
  0
SCALE
  5
48
102
{ACAD_REACTORS
330
47
102
}
330
47
100
AcDbScale
 70
     0
300
1:1
140
1.0
141
1.0
290
     1
  0
SCALE
  5
49
102
{ACAD_REACTORS
330
47
102
}
330
47
100
AcDbScale
 70
     0
300
1:2
140
1.0
141
2.0
290
     0
  0
SCALE
  5
4A
102
{ACAD_REACTORS
330
47
102
}
330
47
100
AcDbScale
 70
     0
300
1:4
140
1.0
141
4.0
290
     0
  0
SCALE
  5
4B
102
{ACAD_REACTORS
330
47
102
}
330
47
100
AcDbScale
 70
     0
300
1:5
140
1.0
141
5.0
290
     0
  0
SCALE
  5
4C
102
{ACAD_REACTORS
330
47
102
}
330
47
100
AcDbScale
 70
     0
300
1:8
140
1.0
141
8.0
290
     0
  0
SCALE
  5
4D
102
{ACAD_REACTORS
330
47
102
}
330
47
100
AcDbScale
 70
     0
300
1:10
140
1.0
141
10.0
290
     0
  0
SCALE
  5
4E
102
{ACAD_REACTORS
330
47
102
}
330
47
100
AcDbScale
 70
     0
300
1:16
140
1.0
141
16.0
290
     0
  0
SCALE
  5
4F
102
{ACAD_REACTORS
330
47
102
}
330
47
100
AcDbScale
 70
     0
300
1:20
140
1.0
141
20.0
290
     0
  0
SCALE
  5
50
102
{ACAD_REACTORS
330
47
102
}
330
47
100
AcDbScale
 70
     0
300
1:30
140
1.0
141
30.0
290
     0
  0
SCALE
  5
51
102
{ACAD_REACTORS
330
47
102
}
330
47
100
AcDbScale
 70
     0
300
1:40
140
1.0
141
40.0
290
     0
  0
SCALE
  5
52
102
{ACAD_REACTORS
330
47
102
}
330
47
100
AcDbScale
 70
     0
300
1:50
140
1.0
141
50.0
290
     0
  0
SCALE
  5
53
102
{ACAD_REACTORS
330
47
102
}
330
47
100
AcDbScale
 70
     0
300
1:100
140
1.0
141
100.0
290
     0
  0
SCALE
  5
54
102
{ACAD_REACTORS
330
47
102
}
330
47
100
AcDbScale
 70
     0
300
2:1
140
2.0
141
1.0
290
     0
  0
SCALE
  5
55
102
{ACAD_REACTORS
330
47
102
}
330
47
100
AcDbScale
 70
     0
300
4:1
140
4.0
141
1.0
290
     0
  0
SCALE
  5
56
102
{ACAD_REACTORS
330
47
102
}
330
47
100
AcDbScale
 70
     0
300
8:1
140
8.0
141
1.0
290
     0
  0
SCALE
  5
57
102
{ACAD_REACTORS
330
47
102
}
330
47
100
AcDbScale
 70
     0
300
10:1
140
10.0
141
1.0
290
     0
  0
SCALE
  5
58
102
{ACAD_REACTORS
330
47
102
}
330
47
100
AcDbScale
 70
     0
300
100:1
140
100.0
141
1.0
290
     0
  0
SCALE
  5
59
102
{ACAD_REACTORS
330
47
102
}
330
47
100
AcDbScale
 70
     0
300
1/128" = 1'-0"
140
0.0078125
141
12.0
290
     0
  0
SCALE
  5
5A
102
{ACAD_REACTORS
330
47
102
}
330
47
100
AcDbScale
 70
     0
300
1/64" = 1'-0"
140
0.015625
141
12.0
290
     0
  0
SCALE
  5
5B
102
{ACAD_REACTORS
330
47
102
}
330
47
100
AcDbScale
 70
     0
300
1/32" = 1'-0"
140
0.03125
141
12.0
290
     0
  0
SCALE
  5
5C
102
{ACAD_REACTORS
330
47
102
}
330
47
100
AcDbScale
 70
     0
300
1/16" = 1'-0"
140
0.0625
141
12.0
290
     0
  0
SCALE
  5
5D
102
{ACAD_REACTORS
330
47
102
}
330
47
100
AcDbScale
 70
     0
300
3/32" = 1'-0"
140
0.09375
141
12.0
290
     0
  0
SCALE
  5
5E
102
{ACAD_REACTORS
330
47
102
}
330
47
100
AcDbScale
 70
     0
300
1/8" = 1'-0"
140
0.125
141
12.0
290
     0
  0
SCALE
  5
5F
102
{ACAD_REACTORS
330
47
102
}
330
47
100
AcDbScale
 70
     0
300
3/16" = 1'-0"
140
0.1875
141
12.0
290
     0
  0
SCALE
  5
60
102
{ACAD_REACTORS
330
47
102
}
330
47
100
AcDbScale
 70
     0
300
1/4" = 1'-0"
140
0.25
141
12.0
290
     0
  0
SCALE
  5
61
102
{ACAD_REACTORS
330
47
102
}
330
47
100
AcDbScale
 70
     0
300
3/8" = 1'-0"
140
0.375
141
12.0
290
     0
  0
SCALE
  5
62
102
{ACAD_REACTORS
330
47
102
}
330
47
100
AcDbScale
 70
     0
300
1/2" = 1'-0"
140
0.5
141
12.0
290
     0
  0
SCALE
  5
63
102
{ACAD_REACTORS
330
47
102
}
330
47
100
AcDbScale
 70
     0
300
3/4" = 1'-0"
140
0.75
141
12.0
290
     0
  0
SCALE
  5
64
102
{ACAD_REACTORS
330
47
102
}
330
47
100
AcDbScale
 70
     0
300
1" = 1'-0"
140
1.0
141
12.0
290
     0
  0
SCALE
  5
65
102
{ACAD_REACTORS
330
47
102
}
330
47
100
AcDbScale
 70
     0
300
1-1/2" = 1'-0"
140
1.5
141
12.0
290
     0
  0
SCALE
  5
66
102
{ACAD_REACTORS
330
47
102
}
330
47
100
AcDbScale
 70
     0
300
3" = 1'-0"
140
3.0
141
12.0
290
     0
  0
SCALE
  5
67
102
{ACAD_REACTORS
330
47
102
}
330
47
100
AcDbScale
 70
     0
300
6" = 1'-0"
140
6.0
141
12.0
290
     0
  0
SCALE
  5
68
102
{ACAD_REACTORS
330
47
102
}
330
47
100
AcDbScale
 70
     0
300
1'-0" = 1'-0"
140
12.0
141
12.0
290
     0
  0
VISUALSTYLE
  5
2F
102
{ACAD_REACTORS
330
2A
102
}
102
{ACAD_XDICTIONARY
360
20D
102
}
330
2A
100
AcDbVisualStyle
  2
2dWireframe
 70
     4
 71
     0
 72
     2
 73
     0
 90
        0
 40
0.6
 41
30.0
 62
     5
 63
     7
421
 16777215
 74
     1
 91
        4
 64
     7
 65
   257
 75
     1
175
     1
 42
1.0
 92
        0
 66
   257
 43
1.0
 76
     1
 77
     6
 78
     2
 67
     7
 79
     5
170
     0
171
     0
290
     0
174
     0
 93
        1
 44
0.0
173
     0
291
     0
 45
0.0
1001
ACAD
1000
AcDbSavedByObjectVersion
1070
     0
  0
VISUALSTYLE
  5
32
102
{ACAD_REACTORS
330
2A
102
}
102
{ACAD_XDICTIONARY
360
213
102
}
330
2A
100
AcDbVisualStyle
  2
Basic
 70
     7
 71
     1
 72
     0
 73
     1
 90
        0
 40
0.6
 41
30.0
 62
     5
 63
     7
421
 16777215
 74
     0
 91
        4
 64
     7
 65
   257
 75
     1
175
     1
 42
1.0
 92
        8
 66
     7
 43
1.0
 76
     1
 77
     6
 78
     2
 67
     7
 79
     5
170
     0
171
     0
290
     0
174
     0
 93
        1
 44
0.0
173
     0
291
     1
 45
0.0
1001
ACAD
1000
AcDbSavedByObjectVersion
1070
     0
  0
VISUALSTYLE
  5
36
102
{ACAD_REACTORS
330
2A
102
}
102
{ACAD_XDICTIONARY
360
21B
102
}
330
2A
100
AcDbVisualStyle
  2
Brighten
 70
    12
 71
     2
 72
     2
 73
     0
 90
        0
 40
0.6
 41
30.0
 62
     5
 63
     7
421
 16777215
 74
     1
 91
        4
 64
     7
 65
   257
 75
     1
175
     1
 42
1.0
 92
        8
 66
     7
 43
1.0
 76
     1
 77
     6
 78
     2
 67
     7
 79
     5
170
     0
171
     0
290
     0
174
     0
 93
        1
 44
50.0
173
     0
291
     1
 45
0.0
1001
ACAD
1000
AcDbSavedByObjectVersion
1070
     0
  0
VISUALSTYLE
  5
3A
102
{ACAD_REACTORS
330
2A
102
}
102
{ACAD_XDICTIONARY
360
223
102
}
330
2A
100
AcDbVisualStyle
  2
ColorChange
 70
    16
 71
     2
 72
     2
 73
     3
 90
        0
 40
0.6
 41
30.0
 62
     5
 63
     8
421
  8421504
 74
     1
 91
        4
 64
     7
 65
   257
 75
     1
175
     1
 42
1.0
 92
        8
 66
     8
424
  8421504
 43
1.0
 76
     1
 77
     6
 78
     2
 67
     7
 79
     5
170
     0
171
     0
290
     0
174
     0
 93
        1
 44
0.0
173
     0
291
     1
 45
0.0
1001
ACAD
1000
AcDbSavedByObjectVersion
1070
     0
  0
VISUALSTYLE
  5
34
102
{ACAD_REACTORS
330
2A
102
}
102
{ACAD_XDICTIONARY
360
217
102
}
330
2A
100
AcDbVisualStyle
  2
Conceptual
 70
     9
 71
     3
 72
     2
 73
     0
 90
        0
 40
0.6
 41
30.0
 62
     5
 63
     7
421
 16777215
 74
     2
 91
        2
 64
     7
 65
   257
 75
     1
175
     1
 42
179.0
 92
        8
 66
     7
 43
1.0
 76
     1
 77
     6
 78
     2
 67
     7
 79
     3
170
     0
171
     0
290
     0
174
     0
 93
        1
 44
0.0
173
     0
291
     0
 45
0.0
1001
ACAD
1000
AcDbSavedByObjectVersion
1070
     0
  0
VISUALSTYLE
  5
35
102
{ACAD_REACTORS
330
2A
102
}
102
{ACAD_XDICTIONARY
360
219
102
}
330
2A
100
AcDbVisualStyle
  2
Dim
 70
    11
 71
     2
 72
     2
 73
     0
 90
        0
 40
0.6
 41
30.0
 62
     5
 63
     7
421
 16777215
 74
     1
 91
        4
 64
     7
 65
   257
 75
     1
175
     1
 42
1.0
 92
        8
 66
     7
 43
1.0
 76
     1
 77
     6
 78
     2
 67
     7
 79
     5
170
     0
171
     0
290
     0
174
     0
 93
        1
 44
-50.0
173
     0
291
     1
 45
0.0
1001
ACAD
1000
AcDbSavedByObjectVersion
1070
     0
  0
VISUALSTYLE
  5
3D
102
{ACAD_REACTORS
330
2A
102
}
102
{ACAD_XDICTIONARY
360
229
102
}
330
2A
100
AcDbVisualStyle
  2
EdgeColorOff
 70
    22
 71
     2
 72
     2
 73
     0
 90
        0
 40
0.6
 41
30.0
 62
     5
 63
     7
421
 16777215
 74
     1
 91
        4
 64
     7
 65
   257
 75
     1
175
     1
 42
1.0
 92
        8
 66
     7
 43
1.0
 76
     1
 77
     6
 78
     2
 67
     7
 79
     5
170
     0
171
     0
290
     0
174
     0
 93
        1
 44
0.0
173
     0
291
     1
 45
0.0
1001
ACAD
1000
AcDbSavedByObjectVersion
1070
     0
  0
VISUALSTYLE
  5
39
102
{ACAD_REACTORS
330
2A
102
}
102
{ACAD_XDICTIONARY
360
221
102
}
330
2A
100
AcDbVisualStyle
  2
Facepattern
 70
    15
 71
     2
 72
     2
 73
     0
 90
        0
 40
0.6
 41
30.0
 62
     5
 63
     7
421
 16777215
 74
     1
 91
        4
 64
     7
 65
   257
 75
     1
175
     1
 42
1.0
 92
        8
 66
     7
 43
1.0
 76
     1
 77
     6
 78
     2
 67
     7
 79
     5
170
     0
171
     0
290
     0
174
     0
 93
        1
 44
0.0
173
     0
291
     1
 45
0.0
1001
ACAD
1000
AcDbSavedByObjectVersion
1070
     0
  0
VISUALSTYLE
  5
2B
102
{ACAD_REACTORS
330
2A
102
}
102
{ACAD_XDICTIONARY
360
205
102
}
330
2A
100
AcDbVisualStyle
  2
Flat
 70
     0
 71
     2
 72
     1
 73
     1
 90
        2
 40
0.6
 41
30.0
 62
     5
 63
     7
421
 16777215
 74
     0
 91
        0
 64
     7
 65
   257
 75
     1
175
     1
 42
1.0
 92
        8
 66
     7
 43
1.0
 76
     1
 77
     6
 78
     2
 67
     7
 79
     5
170
     0
171
     0
290
     0
174
     0
 93
       13
 44
0.0
173
     0
291
     1
 45
0.0
1001
ACAD
1000
AcDbSavedByObjectVersion
1070
     0
  0
VISUALSTYLE
  5
2C
102
{ACAD_REACTORS
330
2A
102
}
102
{ACAD_XDICTIONARY
360
207
102
}
330
2A
100
AcDbVisualStyle
  2
FlatWithEdges
 70
     1
 71
     2
 72
     1
 73
     1
 90
        2
 40
0.6
 41
30.0
 62
     5
 63
     7
421
 16777215
 74
     1
 91
        0
 64
     7
 65
   257
 75
     1
175
     1
 42
1.0
 92
        0
 66
   257
 43
1.0
 76
     1
 77
     6
 78
     2
 67
     7
 79
     5
170
     0
171
     0
290
     0
174
     0
 93
       13
 44
0.0
173
     0
291
     1
 45
0.0
1001
ACAD
1000
AcDbSavedByObjectVersion
1070
     0
  0
VISUALSTYLE
  5
2D
102
{ACAD_REACTORS
330
2A
102
}
102
{ACAD_XDICTIONARY
360
209
102
}
330
2A
100
AcDbVisualStyle
  2
Gouraud
 70
     2
 71
     2
 72
     2
 73
     1
 90
        2
 40
0.6
 41
30.0
 62
     5
 63
     7
421
 16777215
 74
     0
 91
        0
 64
     7
 65
   257
 75
     1
175
     1
 42
1.0
 92
        0
 66
     7
 43
1.0
 76
     1
 77
     6
 78
     2
 67
     7
 79
     5
170
     0
171
     0
290
     0
174
     0
 93
       13
 44
0.0
173
     0
291
     1
 45
0.0
1001
ACAD
1000
AcDbSavedByObjectVersion
1070
     0
  0
VISUALSTYLE
  5
2E
102
{ACAD_REACTORS
330
2A
102
}
102
{ACAD_XDICTIONARY
360
20B
102
}
330
2A
100
AcDbVisualStyle
  2
GouraudWithEdges
 70
     3
 71
     2
 72
     2
 73
     1
 90
        2
 40
0.6
 41
30.0
 62
     5
 63
     7
421
 16777215
 74
     1
 91
        0
 64
     7
 65
   257
 75
     1
175
     1
 42
1.0
 92
        0
 66
   257
 43
1.0
 76
     1
 77
     6
 78
     2
 67
     7
 79
     5
170
     0
171
     0
290
     0
174
     0
 93
       13
 44
0.0
173
     0
291
     1
 45
0.0
1001
ACAD
1000
AcDbSavedByObjectVersion
1070
     0
  0
VISUALSTYLE
  5
31
102
{ACAD_REACTORS
330
2A
102
}
102
{ACAD_XDICTIONARY
360
211
102
}
330
2A
100
AcDbVisualStyle
  2
Hidden
 70
     6
 71
     1
 72
     2
 73
     2
 90
        0
 40
0.6
 41
30.0
 62
     5
 63
     7
421
 16777215
 74
     2
 91
        2
 64
     7
 65
   257
 75
     2
175
     1
 42
40.0
 92
        0
 66
   257
 43
1.0
 76
     1
 77
     6
 78
     2
 67
     7
 79
     3
170
     0
171
     0
290
     0
174
     0
 93
        1
 44
0.0
173
     0
291
     0
 45
0.0
1001
ACAD
1000
AcDbSavedByObjectVersion
1070
     0
  0
VISUALSTYLE
  5
3B
102
{ACAD_REACTORS
330
2A
102
}
102
{ACAD_XDICTIONARY
360
225
102
}
330
2A
100
AcDbVisualStyle
  2
JitterOff
 70
    20
 71
     2
 72
     2
 73
     0
 90
        0
 40
0.6
 41
30.0
 62
     5
 63
     7
421
 16777215
 74
     1
 91
        4
 64
     7
 65
   257
 75
     1
175
     1
 42
1.0
 92
       10
 66
     7
 43
1.0
 76
     1
 77
     6
 78
     2
 67
     7
 79
     5
170
     0
171
     0
290
     0
174
     0
 93
        1
 44
0.0
173
     0
291
     1
 45
0.0
1001
ACAD
1000
AcDbSavedByObjectVersion
1070
     0
  0
VISUALSTYLE
  5
38
102
{ACAD_REACTORS
330
2A
102
}
102
{ACAD_XDICTIONARY
360
21F
102
}
330
2A
100
AcDbVisualStyle
  2
Linepattern
 70
    14
 71
     2
 72
     2
 73
     0
 90
        0
 40
0.6
 41
30.0
 62
     5
 63
     7
421
 16777215
 74
     1
 91
        4
 64
     7
 65
   257
 75
     7
175
     7
 42
1.0
 92
        8
 66
     7
 43
1.0
 76
     1
 77
     6
 78
     2
 67
     7
 79
     5
170
     0
171
     0
290
     0
174
     0
 93
        1
 44
0.0
173
     0
291
     1
 45
0.0
1001
ACAD
1000
AcDbSavedByObjectVersion
1070
     0
  0
VISUALSTYLE
  5
3C
102
{ACAD_REACTORS
330
2A
102
}
102
{ACAD_XDICTIONARY
360
227
102
}
330
2A
100
AcDbVisualStyle
  2
OverhangOff
 70
    21
 71
     2
 72
     2
 73
     0
 90
        0
 40
0.6
 41
30.0
 62
     5
 63
     7
421
 16777215
 74
     1
 91
        4
 64
     7
 65
   257
 75
     1
175
     1
 42
1.0
 92
        9
 66
     7
 43
1.0
 76
     1
 77
     6
 78
     2
 67
     7
 79
     5
170
     0
171
     0
290
     0
174
     0
 93
        1
 44
0.0
173
     0
291
     1
 45
0.0
1001
ACAD
1000
AcDbSavedByObjectVersion
1070
     0
  0
VISUALSTYLE
  5
33
102
{ACAD_REACTORS
330
2A
102
}
102
{ACAD_XDICTIONARY
360
215
102
}
330
2A
100
AcDbVisualStyle
  2
Realistic
 70
     8
 71
     2
 72
     3
 73
     0
 90
        2
 40
0.6
 41
30.0
 62
     5
 63
     7
421
 16777215
 74
     0
 91
        0
 64
     7
 65
   257
 75
     1
175
     1
 42
1.0
 92
        8
 66
   257
 43
1.0
 76
     1
 77
     6
 78
     2
 67
     7
 79
     3
170
     0
171
     0
290
     0
174
     0
 93
       13
 44
0.0
173
     0
291
     0
 45
0.0
1001
ACAD
1000
AcDbSavedByObjectVersion
1070
     0
  0
VISUALSTYLE
  5
42
102
{ACAD_REACTORS
330
2A
102
}
102
{ACAD_XDICTIONARY
360
233
102
}
330
2A
100
AcDbVisualStyle
  2
Shaded
 70
    27
 71
     2
 72
     2
 73
     1
 90
        2
 40
0.6
 41
30.0
 62
     5
 63
     7
421
 16777215
 74
     0
 91
        4
 64
     7
 65
   257
 75
     1
175
     1
 42
1.0
 92
        8
 66
   257
 43
1.0
 76
     1
 77
     6
 78
     2
 67
     8
425
  7895160
 79
     3
170
     0
171
     0
290
     0
174
     0
 93
        5
 44
0.0
173
     0
291
     0
 45
0.0
1001
ACAD
1000
AcDbSavedByObjectVersion
1070
     0
  0
VISUALSTYLE
  5
41
102
{ACAD_REACTORS
330
2A
102
}
102
{ACAD_XDICTIONARY
360
231
102
}
330
2A
100
AcDbVisualStyle
  2
Shaded with edges
 70
    26
 71
     2
 72
     2
 73
     1
 90
        2
 40
0.6
 41
30.0
 62
     5
 63
     7
421
 16777215
 74
     1
 91
       10
 64
     7
 65
   257
 75
     2
175
     1
 42
1.0
 92
        8
 66
   257
 43
1.0
 76
     1
 77
     6
 78
     2
 67
     7
 79
     3
170
     0
171
     0
290
     0
174
     0
 93
        5
 44
0.0
173
     0
291
     0
 45
0.0
1001
ACAD
1000
AcDbSavedByObjectVersion
1070
     0
  0
VISUALSTYLE
  5
3E
102
{ACAD_REACTORS
330
2A
102
}
102
{ACAD_XDICTIONARY
360
22B
102
}
330
2A
100
AcDbVisualStyle
  2
Shades of Gray
 70
    23
 71
     2
 72
     2
 73
     3
 90
        0
 40
0.6
 41
30.0
 62
     5
 63
     7
421
 16777215
 74
     2
 91
        2
 64
     7
 65
     7
 75
     1
175
     1
 42
40.0
 92
        8
 66
     7
 43
1.0
 76
     1
 77
     6
 78
     2
 67
     7
 79
     3
170
     0
171
     0
290
     0
174
     0
 93
        1
 44
0.0
173
     0
291
     0
 45
0.0
1001
ACAD
1000
AcDbSavedByObjectVersion
1070
     0
  0
VISUALSTYLE
  5
3F
102
{ACAD_REACTORS
330
2A
102
}
102
{ACAD_XDICTIONARY
360
22D
102
}
330
2A
100
AcDbVisualStyle
  2
Sketchy
 70
    24
 71
     1
 72
     2
 73
     2
 90
        0
 40
0.6
 41
30.0
 62
     5
 63
     7
421
 16777215
 74
     2
 91
        2
 64
     7
 65
     7
 75
     1
175
     1
 42
40.0
 92
       11
 66
     7
 43
1.0
 76
     1
 77
     6
 78
     2
 67
     7
 79
     6
170
     0
171
     0
290
     0
174
     0
 93
        1
 44
0.0
173
     0
291
     0
 45
0.0
1001
ACAD
1000
AcDbSavedByObjectVersion
1070
     0
  0
VISUALSTYLE
  5
37
102
{ACAD_REACTORS
330
2A
102
}
102
{ACAD_XDICTIONARY
360
21D
102
}
330
2A
100
AcDbVisualStyle
  2
Thicken
 70
    13
 71
     2
 72
     2
 73
     0
 90
        0
 40
0.6
 41
30.0
 62
     5
 63
     7
421
 16777215
 74
     1
 91
        4
 64
     7
 65
   257
 75
     1
175
     1
 42
1.0
 92
       12
 66
     7
 43
1.0
 76
     1
 77
     6
 78
     2
 67
     7
 79
     5
170
     0
171
     0
290
     0
174
     0
 93
        1
 44
0.0
173
     0
291
     1
 45
0.0
1001
ACAD
1000
AcDbSavedByObjectVersion
1070
     0
  0
VISUALSTYLE
  5
30
102
{ACAD_REACTORS
330
2A
102
}
102
{ACAD_XDICTIONARY
360
20F
102
}
330
2A
100
AcDbVisualStyle
  2
Wireframe
 70
     5
 71
     0
 72
     2
 73
     0
 90
        0
 40
0.6
 41
30.0
 62
     5
 63
     7
421
 16777215
 74
     1
 91
        4
 64
     7
 65
   257
 75
     1
175
     1
 42
1.0
 92
        0
 66
   257
 43
1.0
 76
     1
 77
     6
 78
     2
 67
     7
 79
     3
170
     0
171
     0
290
     0
174
     0
 93
        1
 44
0.0
173
     0
291
     0
 45
0.0
1001
ACAD
1000
AcDbSavedByObjectVersion
1070
     0
  0
VISUALSTYLE
  5
40
102
{ACAD_REACTORS
330
2A
102
}
102
{ACAD_XDICTIONARY
360
22F
102
}
330
2A
100
AcDbVisualStyle
  2
X-Ray
 70
    25
 71
     2
 72
     2
 73
     1
 90
        1
 40
0.5
 41
30.0
 62
     5
 63
     7
421
 16777215
 74
     1
 91
        0
 64
     7
 65
   257
 75
     1
175
     1
 42
1.0
 92
        8
 66
     7
 43
1.0
 76
     1
 77
     6
 78
     2
 67
     7
 79
     3
170
     0
171
     0
290
     0
174
     0
 93
       13
 44
0.0
173
     0
291
     0
 45
0.0
1001
ACAD
1000
AcDbSavedByObjectVersion
1070
     0
  0
DICTIONARYVAR
  5
203
102
{ACAD_REACTORS
330
202
102
}
330
202
100
DictionaryVariables
280
     0
  1
1:1
  0
DICTIONARYVAR
  5
204
102
{ACAD_REACTORS
330
202
102
}
330
202
100
DictionaryVariables
280
     0
  1
1
  0
DICTIONARY
  5
237
330
45
100
AcDbDictionary
280
     1
281
     1
  3
ACAD_XREC_ROUNDTRIP
360
238
  0
DICTIONARY
  5
235
330
44
100
AcDbDictionary
280
     1
281
     1
  3
ACAD_XREC_ROUNDTRIP
360
236
  0
DICTIONARY
  5
239
330
46
100
AcDbDictionary
280
     1
281
     1
  3
ACAD_XREC_ROUNDTRIP
360
23A
  0
DICTIONARY
  5
20D
330
2F
100
AcDbDictionary
280
     1
281
     1
  3
ACAD_XREC_ROUNDTRIP
360
20E
  0
DICTIONARY
  5
213
330
32
100
AcDbDictionary
280
     1
281
     1
  3
ACAD_XREC_ROUNDTRIP
360
214
  0
DICTIONARY
  5
21B
330
36
100
AcDbDictionary
280
     1
281
     1
  3
ACAD_XREC_ROUNDTRIP
360
21C
  0
DICTIONARY
  5
223
330
3A
100
AcDbDictionary
280
     1
281
     1
  3
ACAD_XREC_ROUNDTRIP
360
224
  0
DICTIONARY
  5
217
330
34
100
AcDbDictionary
280
     1
281
     1
  3
ACAD_XREC_ROUNDTRIP
360
218
  0
DICTIONARY
  5
219
330
35
100
AcDbDictionary
280
     1
281
     1
  3
ACAD_XREC_ROUNDTRIP
360
21A
  0
DICTIONARY
  5
229
330
3D
100
AcDbDictionary
280
     1
281
     1
  3
ACAD_XREC_ROUNDTRIP
360
22A
  0
DICTIONARY
  5
221
330
39
100
AcDbDictionary
280
     1
281
     1
  3
ACAD_XREC_ROUNDTRIP
360
222
  0
DICTIONARY
  5
205
330
2B
100
AcDbDictionary
280
     1
281
     1
  3
ACAD_XREC_ROUNDTRIP
360
206
  0
DICTIONARY
  5
207
330
2C
100
AcDbDictionary
280
     1
281
     1
  3
ACAD_XREC_ROUNDTRIP
360
208
  0
DICTIONARY
  5
209
330
2D
100
AcDbDictionary
280
     1
281
     1
  3
ACAD_XREC_ROUNDTRIP
360
20A
  0
DICTIONARY
  5
20B
330
2E
100
AcDbDictionary
280
     1
281
     1
  3
ACAD_XREC_ROUNDTRIP
360
20C
  0
DICTIONARY
  5
211
330
31
100
AcDbDictionary
280
     1
281
     1
  3
ACAD_XREC_ROUNDTRIP
360
212
  0
DICTIONARY
  5
225
330
3B
100
AcDbDictionary
280
     1
281
     1
  3
ACAD_XREC_ROUNDTRIP
360
226
  0
DICTIONARY
  5
21F
330
38
100
AcDbDictionary
280
     1
281
     1
  3
ACAD_XREC_ROUNDTRIP
360
220
  0
DICTIONARY
  5
227
330
3C
100
AcDbDictionary
280
     1
281
     1
  3
ACAD_XREC_ROUNDTRIP
360
228
  0
DICTIONARY
  5
215
330
33
100
AcDbDictionary
280
     1
281
     1
  3
ACAD_XREC_ROUNDTRIP
360
216
  0
DICTIONARY
  5
233
330
42
100
AcDbDictionary
280
     1
281
     1
  3
ACAD_XREC_ROUNDTRIP
360
234
  0
DICTIONARY
  5
231
330
41
100
AcDbDictionary
280
     1
281
     1
  3
ACAD_XREC_ROUNDTRIP
360
232
  0
DICTIONARY
  5
22B
330
3E
100
AcDbDictionary
280
     1
281
     1
  3
ACAD_XREC_ROUNDTRIP
360
22C
  0
DICTIONARY
  5
22D
330
3F
100
AcDbDictionary
280
     1
281
     1
  3
ACAD_XREC_ROUNDTRIP
360
22E
  0
DICTIONARY
  5
21D
330
37
100
AcDbDictionary
280
     1
281
     1
  3
ACAD_XREC_ROUNDTRIP
360
21E
  0
DICTIONARY
  5
20F
330
30
100
AcDbDictionary
280
     1
281
     1
  3
ACAD_XREC_ROUNDTRIP
360
210
  0
DICTIONARY
  5
22F
330
40
100
AcDbDictionary
280
     1
281
     1
  3
ACAD_XREC_ROUNDTRIP
360
230
  0
XRECORD
  5
238
102
{ACAD_REACTORS
330
237
102
}
330
237
100
AcDbXrecord
280
     1
102
MATERIAL
148
0.0
149
0.0
149
0.0
 93
        0
 94
      127
282
     0
 72
     1
 77
     1
171
     1
175
     1
179
     1
273
     0
  0
XRECORD
  5
236
102
{ACAD_REACTORS
330
235
102
}
330
235
100
AcDbXrecord
280
     1
102
MATERIAL
148
0.0
149
0.0
149
0.0
 93
        0
 94
      127
282
     0
 72
     1
 77
     1
171
     1
175
     1
179
     1
273
     0
  0
XRECORD
  5
23A
102
{ACAD_REACTORS
330
239
102
}
330
239
100
AcDbXrecord
280
     1
102
MATERIAL
148
0.0
149
0.0
149
0.0
 93
        0
 94
      127
282
     0
 72
     1
 77
     1
171
     1
175
     1
179
     1
273
     0
  0
XRECORD
  5
20E
102
{ACAD_REACTORS
330
20D
102
}
330
20D
100
AcDbXrecord
280
     1
102
RTVSPropertyOp0
 70
     1
102
RTVSPropertyOp1
 70
     1
102
RTVSPropertyOp2
 70
     1
102
RTVSPropertyOp3
 70
     1
102
RTVSPropertyOp4
 70
     1
102
RTVSPropertyOp5
 70
     1
102
RTVSPropertyOp6
 70
     1
102
RTVSPropertyOp7
 70
     1
102
RTVSPropertyOp8
 70
     1
102
RTVSPropertyOp9
 70
     1
102
RTVSPropertyOp10
 70
     1
102
RTVSPropertyOp11
 70
     1
102
RTVSPropertyOp12
 70
     1
102
RTVSPropertyOp13
 70
     1
102
RTVSPropertyOp14
 70
     1
102
RTVSPropertyOp15
 70
     1
102
RTVSPropertyOp16
 70
     1
102
RTVSPropertyOp17
 70
     1
102
RTVSPropertyOp18
 70
     1
102
RTVSPropertyOp19
 70
     1
102
RTVSPropertyOp20
 70
     1
102
RTVSPropertyOp21
 70
     1
102
RTVSPropertyOp22
 70
     1
102
RTVSPropertyOp23
 70
     1
102
RTVSPropertyOp24
 70
     1
102
RTVSPropertyOp25
 70
     1
102
RTVSPropertyOp26
 70
     1
102
RTVSPropertyOp27
 70
     1
102
RTVSPropertyOp28
 70
     1
102
RTVSPropertyOp29
 70
     1
102
RTVSPropertyOp30
 70
     1
102
RTVSPropertyOp31
 70
     1
102
RTVSPropertyOp32
 70
     1
102
RTVSPropertyOp33
 70
     1
102
RTVSPropertyOp34
 70
     1
102
RTVSPropertyOp35
 70
     1
102
RTVSPropertyOp36
 70
     1
102
RTVSPropertyOp37
 70
     1
102
RTVSPropertyOp38
 70
     1
102
RTVSPropertyOp39
 70
     1
102
RTVSPropertyOp40
 70
     1
102
RTVSPropertyOp41
 70
     1
102
RTVSPropertyOp42
 70
     1
102
RTVSPropertyOp43
 70
     1
102
RTVSPropertyOp44
 70
     1
102
RTVSPropertyOp45
 70
     1
102
RTVSPropertyOp46
 70
     1
102
RTVSPropertyOp47
 70
     1
102
RTVSPropertyOp48
 70
     1
102
RTVSPropertyOp49
 70
     1
102
RTVSPropertyOp50
 70
     1
102
RTVSPropertyOp51
 70
     0
102
RTVSPropertyOp52
 70
     0
102
RTVSPropertyOp53
 70
     1
102
RTVSPropertyOp54
 70
     1
102
RTVSPropertyOp55
 70
     1
102
RTVSPropertyOp56
 70
     1
102
RTVSPropertyOp57
 70
     1
102
RTVSPost2010Prop28
280
     1
102
RTVSPost2010PropOp28
 70
     1
102
RTVSPost2010Prop29
280
     1
102
RTVSPost2010PropOp29
 70
     1
102
RTVSPost2010Prop30
280
     0
102
RTVSPost2010PropOp30
 70
     1
102
RTVSPost2010Prop31
280
     0
102
RTVSPost2010PropOp31
 70
     1
102
RTVSPost2010Prop32
280
     0
102
RTVSPost2010PropOp32
 70
     1
102
RTVSPost2010Prop33
280
     0
102
RTVSPost2010PropOp33
 70
     1
102
RTVSPost2010Prop34
280
     0
102
RTVSPost2010PropOp34
 70
     1
102
RTVSPost2010Prop35
280
     0
102
RTVSPost2010PropOp35
 70
     1
102
RTVSPost2010Prop36
280
     0
102
RTVSPost2010PropOp36
 70
     1
102
RTVSPost2010Prop37
 90
       50
102
RTVSPost2010PropOp37
 70
     1
102
RTVSPost2010Prop38
140
0.0
102
RTVSPost2010PropOp38
 70
     1
102
RTVSPost2010Prop39
140
1.0
102
RTVSPost2010PropOp39
 70
     1
102
RTVSPost2010Prop40
 90
        0
102
RTVSPost2010PropOp40
 70
     1
102
RTVSPost2010Prop41ColorIndex
 90
       18
102
RTVSPost2010Prop41ColorRGB
 90
        0
102
RTVSPost2010PropOp41
 70
     1
102
RTVSPost2010Prop42
 90
       50
102
RTVSPost2010PropOp42
 70
     1
102
RTVSPost2010Prop43
 90
        3
102
RTVSPost2010PropOp43
 70
     1
102
RTVSPost2010Prop44ColorIndex
 90
        5
102
RTVSPost2010Prop44ColorRGB
 90
      255
102
RTVSPost2010PropOp44
 70
     1
102
RTVSPost2010Prop45
280
     0
102
RTVSPost2010PropOp45
 70
     1
102
RTVSPost2010Prop46
 90
       50
102
RTVSPost2010PropOp46
 70
     1
102
RTVSPost2010Prop47
 90
       50
102
RTVSPost2010PropOp47
 70
     1
102
RTVSPost2010Prop48
 90
       50
102
RTVSPost2010PropOp48
 70
     1
102
RTVSPost2010Prop49
280
     0
102
RTVSPost2010PropOp49
 70
     1
102
RTVSPost2010Prop50
 90
       50
102
RTVSPost2010PropOp50
 70
     1
102
RTVSPost2010Prop51ColorIndex
 90
      256
102
RTVSPost2010Prop51ColorRGB
 90
-16777216
102
RTVSPost2010PropOp51
 70
     0
102
RTVSPost2010Prop52
140
1.0
102
RTVSPost2010PropOp52
 70
     0
102
RTVSPost2010Prop53
 90
        2
102
RTVSPost2010PropOp53
 70
     1
102
RTVSPost2010Prop54
  1
strokes_ogs.tif
102
RTVSPost2010PropOp54
 70
     1
102
RTVSPost2010Prop55
280
     0
102
RTVSPost2010PropOp55
 70
     1
102
RTVSPost2010Prop56
140
1.0
102
RTVSPost2010PropOp56
 70
     1
102
RTVSPost2010Prop57
140
1.0
102
RTVSPost2010PropOp57
 70
     1
  0
XRECORD
  5
214
102
{ACAD_REACTORS
330
213
102
}
330
213
100
AcDbXrecord
280
     1
102
RTVSPropertyOp0
 70
     1
102
RTVSPropertyOp1
 70
     1
102
RTVSPropertyOp2
 70
     1
102
RTVSPropertyOp3
 70
     1
102
RTVSPropertyOp4
 70
     1
102
RTVSPropertyOp5
 70
     1
102
RTVSPropertyOp6
 70
     1
102
RTVSPropertyOp7
 70
     1
102
RTVSPropertyOp8
 70
     1
102
RTVSPropertyOp9
 70
     1
102
RTVSPropertyOp10
 70
     1
102
RTVSPropertyOp11
 70
     1
102
RTVSPropertyOp12
 70
     1
102
RTVSPropertyOp13
 70
     1
102
RTVSPropertyOp14
 70
     1
102
RTVSPropertyOp15
 70
     1
102
RTVSPropertyOp16
 70
     1
102
RTVSPropertyOp17
 70
     1
102
RTVSPropertyOp18
 70
     1
102
RTVSPropertyOp19
 70
     1
102
RTVSPropertyOp20
 70
     1
102
RTVSPropertyOp21
 70
     1
102
RTVSPropertyOp22
 70
     1
102
RTVSPropertyOp23
 70
     1
102
RTVSPropertyOp24
 70
     1
102
RTVSPropertyOp25
 70
     1
102
RTVSPropertyOp26
 70
     1
102
RTVSPropertyOp27
 70
     1
102
RTVSPropertyOp28
 70
     1
102
RTVSPropertyOp29
 70
     1
102
RTVSPropertyOp30
 70
     1
102
RTVSPropertyOp31
 70
     1
102
RTVSPropertyOp32
 70
     1
102
RTVSPropertyOp33
 70
     1
102
RTVSPropertyOp34
 70
     1
102
RTVSPropertyOp35
 70
     1
102
RTVSPropertyOp36
 70
     1
102
RTVSPropertyOp37
 70
     1
102
RTVSPropertyOp38
 70
     1
102
RTVSPropertyOp39
 70
     1
102
RTVSPropertyOp40
 70
     1
102
RTVSPropertyOp41
 70
     1
102
RTVSPropertyOp42
 70
     1
102
RTVSPropertyOp43
 70
     1
102
RTVSPropertyOp44
 70
     1
102
RTVSPropertyOp45
 70
     1
102
RTVSPropertyOp46
 70
     1
102
RTVSPropertyOp47
 70
     1
102
RTVSPropertyOp48
 70
     1
102
RTVSPropertyOp49
 70
     1
102
RTVSPropertyOp50
 70
     1
102
RTVSPropertyOp51
 70
     0
102
RTVSPropertyOp52
 70
     0
102
RTVSPropertyOp53
 70
     1
102
RTVSPropertyOp54
 70
     1
102
RTVSPropertyOp55
 70
     1
102
RTVSPropertyOp56
 70
     1
102
RTVSPropertyOp57
 70
     1
102
RTVSPost2010Prop28
280
     0
102
RTVSPost2010PropOp28
 70
     1
102
RTVSPost2010Prop29
280
     1
102
RTVSPost2010PropOp29
 70
     1
102
RTVSPost2010Prop30
280
     1
102
RTVSPost2010PropOp30
 70
     1
102
RTVSPost2010Prop31
280
     0
102
RTVSPost2010PropOp31
 70
     1
102
RTVSPost2010Prop32
280
     0
102
RTVSPost2010PropOp32
 70
     1
102
RTVSPost2010Prop33
280
     0
102
RTVSPost2010PropOp33
 70
     1
102
RTVSPost2010Prop34
280
     0
102
RTVSPost2010PropOp34
 70
     1
102
RTVSPost2010Prop35
280
     0
102
RTVSPost2010PropOp35
 70
     1
102
RTVSPost2010Prop36
280
     0
102
RTVSPost2010PropOp36
 70
     1
102
RTVSPost2010Prop37
 90
       50
102
RTVSPost2010PropOp37
 70
     1
102
RTVSPost2010Prop38
140
0.0
102
RTVSPost2010PropOp38
 70
     1
102
RTVSPost2010Prop39
140
1.0
102
RTVSPost2010PropOp39
 70
     1
102
RTVSPost2010Prop40
 90
        0
102
RTVSPost2010PropOp40
 70
     1
102
RTVSPost2010Prop41ColorIndex
 90
       18
102
RTVSPost2010Prop41ColorRGB
 90
        0
102
RTVSPost2010PropOp41
 70
     1
102
RTVSPost2010Prop42
 90
       50
102
RTVSPost2010PropOp42
 70
     1
102
RTVSPost2010Prop43
 90
        3
102
RTVSPost2010PropOp43
 70
     1
102
RTVSPost2010Prop44ColorIndex
 90
        5
102
RTVSPost2010Prop44ColorRGB
 90
      255
102
RTVSPost2010PropOp44
 70
     1
102
RTVSPost2010Prop45
280
     0
102
RTVSPost2010PropOp45
 70
     1
102
RTVSPost2010Prop46
 90
       50
102
RTVSPost2010PropOp46
 70
     1
102
RTVSPost2010Prop47
 90
       50
102
RTVSPost2010PropOp47
 70
     1
102
RTVSPost2010Prop48
 90
       50
102
RTVSPost2010PropOp48
 70
     1
102
RTVSPost2010Prop49
280
     0
102
RTVSPost2010PropOp49
 70
     1
102
RTVSPost2010Prop50
 90
       50
102
RTVSPost2010PropOp50
 70
     1
102
RTVSPost2010Prop51ColorIndex
 90
      256
102
RTVSPost2010Prop51ColorRGB
 90
-16777216
102
RTVSPost2010PropOp51
 70
     0
102
RTVSPost2010Prop52
140
1.0
102
RTVSPost2010PropOp52
 70
     0
102
RTVSPost2010Prop53
 90
        2
102
RTVSPost2010PropOp53
 70
     1
102
RTVSPost2010Prop54
  1
strokes_ogs.tif
102
RTVSPost2010PropOp54
 70
     1
102
RTVSPost2010Prop55
280
     0
102
RTVSPost2010PropOp55
 70
     1
102
RTVSPost2010Prop56
140
1.0
102
RTVSPost2010PropOp56
 70
     1
102
RTVSPost2010Prop57
140
1.0
102
RTVSPost2010PropOp57
 70
     1
  0
XRECORD
  5
21C
102
{ACAD_REACTORS
330
21B
102
}
330
21B
100
AcDbXrecord
280
     1
102
RTVSPropertyOp0
 70
     1
102
RTVSPropertyOp1
 70
     1
102
RTVSPropertyOp2
 70
     1
102
RTVSPropertyOp3
 70
     1
102
RTVSPropertyOp4
 70
     1
102
RTVSPropertyOp5
 70
     1
102
RTVSPropertyOp6
 70
     1
102
RTVSPropertyOp7
 70
     1
102
RTVSPropertyOp8
 70
     1
102
RTVSPropertyOp9
 70
     1
102
RTVSPropertyOp10
 70
     1
102
RTVSPropertyOp11
 70
     1
102
RTVSPropertyOp12
 70
     1
102
RTVSPropertyOp13
 70
     1
102
RTVSPropertyOp14
 70
     1
102
RTVSPropertyOp15
 70
     1
102
RTVSPropertyOp16
 70
     1
102
RTVSPropertyOp17
 70
     1
102
RTVSPropertyOp18
 70
     1
102
RTVSPropertyOp19
 70
     1
102
RTVSPropertyOp20
 70
     1
102
RTVSPropertyOp21
 70
     1
102
RTVSPropertyOp22
 70
     1
102
RTVSPropertyOp23
 70
     1
102
RTVSPropertyOp24
 70
     1
102
RTVSPropertyOp25
 70
     1
102
RTVSPropertyOp26
 70
     1
102
RTVSPropertyOp27
 70
     1
102
RTVSPropertyOp28
 70
     1
102
RTVSPropertyOp29
 70
     1
102
RTVSPropertyOp30
 70
     1
102
RTVSPropertyOp31
 70
     1
102
RTVSPropertyOp32
 70
     1
102
RTVSPropertyOp33
 70
     1
102
RTVSPropertyOp34
 70
     1
102
RTVSPropertyOp35
 70
     1
102
RTVSPropertyOp36
 70
     1
102
RTVSPropertyOp37
 70
     1
102
RTVSPropertyOp38
 70
     1
102
RTVSPropertyOp39
 70
     1
102
RTVSPropertyOp40
 70
     1
102
RTVSPropertyOp41
 70
     1
102
RTVSPropertyOp42
 70
     1
102
RTVSPropertyOp43
 70
     1
102
RTVSPropertyOp44
 70
     1
102
RTVSPropertyOp45
 70
     1
102
RTVSPropertyOp46
 70
     1
102
RTVSPropertyOp47
 70
     1
102
RTVSPropertyOp48
 70
     1
102
RTVSPropertyOp49
 70
     1
102
RTVSPropertyOp50
 70
     1
102
RTVSPropertyOp51
 70
     0
102
RTVSPropertyOp52
 70
     0
102
RTVSPropertyOp53
 70
     1
102
RTVSPropertyOp54
 70
     1
102
RTVSPropertyOp55
 70
     1
102
RTVSPropertyOp56
 70
     1
102
RTVSPropertyOp57
 70
     1
102
RTVSPost2010Prop28
280
     0
102
RTVSPost2010PropOp28
 70
     1
102
RTVSPost2010Prop29
280
     1
102
RTVSPost2010PropOp29
 70
     1
102
RTVSPost2010Prop30
280
     1
102
RTVSPost2010PropOp30
 70
     1
102
RTVSPost2010Prop31
280
     0
102
RTVSPost2010PropOp31
 70
     1
102
RTVSPost2010Prop32
280
     0
102
RTVSPost2010PropOp32
 70
     1
102
RTVSPost2010Prop33
280
     0
102
RTVSPost2010PropOp33
 70
     1
102
RTVSPost2010Prop34
280
     0
102
RTVSPost2010PropOp34
 70
     1
102
RTVSPost2010Prop35
280
     0
102
RTVSPost2010PropOp35
 70
     1
102
RTVSPost2010Prop36
280
     0
102
RTVSPost2010PropOp36
 70
     1
102
RTVSPost2010Prop37
 90
       50
102
RTVSPost2010PropOp37
 70
     1
102
RTVSPost2010Prop38
140
0.0
102
RTVSPost2010PropOp38
 70
     1
102
RTVSPost2010Prop39
140
1.0
102
RTVSPost2010PropOp39
 70
     1
102
RTVSPost2010Prop40
 90
        0
102
RTVSPost2010PropOp40
 70
     1
102
RTVSPost2010Prop41ColorIndex
 90
       18
102
RTVSPost2010Prop41ColorRGB
 90
        0
102
RTVSPost2010PropOp41
 70
     1
102
RTVSPost2010Prop42
 90
       50
102
RTVSPost2010PropOp42
 70
     1
102
RTVSPost2010Prop43
 90
        3
102
RTVSPost2010PropOp43
 70
     1
102
RTVSPost2010Prop44ColorIndex
 90
        5
102
RTVSPost2010Prop44ColorRGB
 90
      255
102
RTVSPost2010PropOp44
 70
     1
102
RTVSPost2010Prop45
280
     0
102
RTVSPost2010PropOp45
 70
     1
102
RTVSPost2010Prop46
 90
       50
102
RTVSPost2010PropOp46
 70
     1
102
RTVSPost2010Prop47
 90
       50
102
RTVSPost2010PropOp47
 70
     1
102
RTVSPost2010Prop48
 90
       50
102
RTVSPost2010PropOp48
 70
     1
102
RTVSPost2010Prop49
280
     0
102
RTVSPost2010PropOp49
 70
     1
102
RTVSPost2010Prop50
 90
       50
102
RTVSPost2010PropOp50
 70
     1
102
RTVSPost2010Prop51ColorIndex
 90
      256
102
RTVSPost2010Prop51ColorRGB
 90
-16777216
102
RTVSPost2010PropOp51
 70
     0
102
RTVSPost2010Prop52
140
1.0
102
RTVSPost2010PropOp52
 70
     0
102
RTVSPost2010Prop53
 90
        2
102
RTVSPost2010PropOp53
 70
     1
102
RTVSPost2010Prop54
  1
strokes_ogs.tif
102
RTVSPost2010PropOp54
 70
     1
102
RTVSPost2010Prop55
280
     0
102
RTVSPost2010PropOp55
 70
     1
102
RTVSPost2010Prop56
140
1.0
102
RTVSPost2010PropOp56
 70
     1
102
RTVSPost2010Prop57
140
1.0
102
RTVSPost2010PropOp57
 70
     1
  0
XRECORD
  5
224
102
{ACAD_REACTORS
330
223
102
}
330
223
100
AcDbXrecord
280
     1
102
RTVSPropertyOp0
 70
     1
102
RTVSPropertyOp1
 70
     1
102
RTVSPropertyOp2
 70
     1
102
RTVSPropertyOp3
 70
     1
102
RTVSPropertyOp4
 70
     1
102
RTVSPropertyOp5
 70
     1
102
RTVSPropertyOp6
 70
     1
102
RTVSPropertyOp7
 70
     1
102
RTVSPropertyOp8
 70
     1
102
RTVSPropertyOp9
 70
     1
102
RTVSPropertyOp10
 70
     1
102
RTVSPropertyOp11
 70
     1
102
RTVSPropertyOp12
 70
     1
102
RTVSPropertyOp13
 70
     1
102
RTVSPropertyOp14
 70
     1
102
RTVSPropertyOp15
 70
     1
102
RTVSPropertyOp16
 70
     1
102
RTVSPropertyOp17
 70
     1
102
RTVSPropertyOp18
 70
     1
102
RTVSPropertyOp19
 70
     1
102
RTVSPropertyOp20
 70
     1
102
RTVSPropertyOp21
 70
     1
102
RTVSPropertyOp22
 70
     1
102
RTVSPropertyOp23
 70
     1
102
RTVSPropertyOp24
 70
     1
102
RTVSPropertyOp25
 70
     1
102
RTVSPropertyOp26
 70
     1
102
RTVSPropertyOp27
 70
     1
102
RTVSPropertyOp28
 70
     1
102
RTVSPropertyOp29
 70
     1
102
RTVSPropertyOp30
 70
     1
102
RTVSPropertyOp31
 70
     1
102
RTVSPropertyOp32
 70
     1
102
RTVSPropertyOp33
 70
     1
102
RTVSPropertyOp34
 70
     1
102
RTVSPropertyOp35
 70
     1
102
RTVSPropertyOp36
 70
     1
102
RTVSPropertyOp37
 70
     1
102
RTVSPropertyOp38
 70
     1
102
RTVSPropertyOp39
 70
     1
102
RTVSPropertyOp40
 70
     1
102
RTVSPropertyOp41
 70
     1
102
RTVSPropertyOp42
 70
     1
102
RTVSPropertyOp43
 70
     1
102
RTVSPropertyOp44
 70
     1
102
RTVSPropertyOp45
 70
     1
102
RTVSPropertyOp46
 70
     1
102
RTVSPropertyOp47
 70
     1
102
RTVSPropertyOp48
 70
     1
102
RTVSPropertyOp49
 70
     1
102
RTVSPropertyOp50
 70
     1
102
RTVSPropertyOp51
 70
     0
102
RTVSPropertyOp52
 70
     0
102
RTVSPropertyOp53
 70
     1
102
RTVSPropertyOp54
 70
     1
102
RTVSPropertyOp55
 70
     1
102
RTVSPropertyOp56
 70
     1
102
RTVSPropertyOp57
 70
     1
102
RTVSPost2010Prop28
280
     0
102
RTVSPost2010PropOp28
 70
     1
102
RTVSPost2010Prop29
280
     1
102
RTVSPost2010PropOp29
 70
     1
102
RTVSPost2010Prop30
280
     1
102
RTVSPost2010PropOp30
 70
     1
102
RTVSPost2010Prop31
280
     0
102
RTVSPost2010PropOp31
 70
     1
102
RTVSPost2010Prop32
280
     0
102
RTVSPost2010PropOp32
 70
     1
102
RTVSPost2010Prop33
280
     0
102
RTVSPost2010PropOp33
 70
     1
102
RTVSPost2010Prop34
280
     0
102
RTVSPost2010PropOp34
 70
     1
102
RTVSPost2010Prop35
280
     0
102
RTVSPost2010PropOp35
 70
     1
102
RTVSPost2010Prop36
280
     0
102
RTVSPost2010PropOp36
 70
     1
102
RTVSPost2010Prop37
 90
       50
102
RTVSPost2010PropOp37
 70
     1
102
RTVSPost2010Prop38
140
0.0
102
RTVSPost2010PropOp38
 70
     1
102
RTVSPost2010Prop39
140
1.0
102
RTVSPost2010PropOp39
 70
     1
102
RTVSPost2010Prop40
 90
        0
102
RTVSPost2010PropOp40
 70
     1
102
RTVSPost2010Prop41ColorIndex
 90
       18
102
RTVSPost2010Prop41ColorRGB
 90
        0
102
RTVSPost2010PropOp41
 70
     1
102
RTVSPost2010Prop42
 90
       50
102
RTVSPost2010PropOp42
 70
     1
102
RTVSPost2010Prop43
 90
        3
102
RTVSPost2010PropOp43
 70
     1
102
RTVSPost2010Prop44ColorIndex
 90
        5
102
RTVSPost2010Prop44ColorRGB
 90
      255
102
RTVSPost2010PropOp44
 70
     1
102
RTVSPost2010Prop45
280
     0
102
RTVSPost2010PropOp45
 70
     1
102
RTVSPost2010Prop46
 90
       50
102
RTVSPost2010PropOp46
 70
     1
102
RTVSPost2010Prop47
 90
       50
102
RTVSPost2010PropOp47
 70
     1
102
RTVSPost2010Prop48
 90
       50
102
RTVSPost2010PropOp48
 70
     1
102
RTVSPost2010Prop49
280
     0
102
RTVSPost2010PropOp49
 70
     1
102
RTVSPost2010Prop50
 90
       50
102
RTVSPost2010PropOp50
 70
     1
102
RTVSPost2010Prop51ColorIndex
 90
      256
102
RTVSPost2010Prop51ColorRGB
 90
-16777216
102
RTVSPost2010PropOp51
 70
     0
102
RTVSPost2010Prop52
140
1.0
102
RTVSPost2010PropOp52
 70
     0
102
RTVSPost2010Prop53
 90
        2
102
RTVSPost2010PropOp53
 70
     1
102
RTVSPost2010Prop54
  1
strokes_ogs.tif
102
RTVSPost2010PropOp54
 70
     1
102
RTVSPost2010Prop55
280
     0
102
RTVSPost2010PropOp55
 70
     1
102
RTVSPost2010Prop56
140
1.0
102
RTVSPost2010PropOp56
 70
     1
102
RTVSPost2010Prop57
140
1.0
102
RTVSPost2010PropOp57
 70
     1
  0
XRECORD
  5
218
102
{ACAD_REACTORS
330
217
102
}
330
217
100
AcDbXrecord
280
     1
102
RTVSPropertyOp0
 70
     1
102
RTVSPropertyOp1
 70
     1
102
RTVSPropertyOp2
 70
     1
102
RTVSPropertyOp3
 70
     1
102
RTVSPropertyOp4
 70
     1
102
RTVSPropertyOp5
 70
     1
102
RTVSPropertyOp6
 70
     1
102
RTVSPropertyOp7
 70
     1
102
RTVSPropertyOp8
 70
     1
102
RTVSPropertyOp9
 70
     1
102
RTVSPropertyOp10
 70
     1
102
RTVSPropertyOp11
 70
     1
102
RTVSPropertyOp12
 70
     1
102
RTVSPropertyOp13
 70
     1
102
RTVSPropertyOp14
 70
     1
102
RTVSPropertyOp15
 70
     1
102
RTVSPropertyOp16
 70
     1
102
RTVSPropertyOp17
 70
     1
102
RTVSPropertyOp18
 70
     1
102
RTVSPropertyOp19
 70
     1
102
RTVSPropertyOp20
 70
     1
102
RTVSPropertyOp21
 70
     1
102
RTVSPropertyOp22
 70
     1
102
RTVSPropertyOp23
 70
     1
102
RTVSPropertyOp24
 70
     1
102
RTVSPropertyOp25
 70
     1
102
RTVSPropertyOp26
 70
     1
102
RTVSPropertyOp27
 70
     1
102
RTVSPropertyOp28
 70
     1
102
RTVSPropertyOp29
 70
     1
102
RTVSPropertyOp30
 70
     1
102
RTVSPropertyOp31
 70
     1
102
RTVSPropertyOp32
 70
     1
102
RTVSPropertyOp33
 70
     1
102
RTVSPropertyOp34
 70
     1
102
RTVSPropertyOp35
 70
     1
102
RTVSPropertyOp36
 70
     1
102
RTVSPropertyOp37
 70
     1
102
RTVSPropertyOp38
 70
     1
102
RTVSPropertyOp39
 70
     1
102
RTVSPropertyOp40
 70
     1
102
RTVSPropertyOp41
 70
     1
102
RTVSPropertyOp42
 70
     1
102
RTVSPropertyOp43
 70
     1
102
RTVSPropertyOp44
 70
     1
102
RTVSPropertyOp45
 70
     1
102
RTVSPropertyOp46
 70
     1
102
RTVSPropertyOp47
 70
     1
102
RTVSPropertyOp48
 70
     1
102
RTVSPropertyOp49
 70
     1
102
RTVSPropertyOp50
 70
     1
102
RTVSPropertyOp51
 70
     0
102
RTVSPropertyOp52
 70
     0
102
RTVSPropertyOp53
 70
     1
102
RTVSPropertyOp54
 70
     1
102
RTVSPropertyOp55
 70
     1
102
RTVSPropertyOp56
 70
     1
102
RTVSPropertyOp57
 70
     1
102
RTVSPost2010Prop28
280
     0
102
RTVSPost2010PropOp28
 70
     1
102
RTVSPost2010Prop29
280
     1
102
RTVSPost2010PropOp29
 70
     1
102
RTVSPost2010Prop30
280
     1
102
RTVSPost2010PropOp30
 70
     1
102
RTVSPost2010Prop31
280
     0
102
RTVSPost2010PropOp31
 70
     1
102
RTVSPost2010Prop32
280
     0
102
RTVSPost2010PropOp32
 70
     1
102
RTVSPost2010Prop33
280
     0
102
RTVSPost2010PropOp33
 70
     1
102
RTVSPost2010Prop34
280
     0
102
RTVSPost2010PropOp34
 70
     1
102
RTVSPost2010Prop35
280
     0
102
RTVSPost2010PropOp35
 70
     1
102
RTVSPost2010Prop36
280
     0
102
RTVSPost2010PropOp36
 70
     1
102
RTVSPost2010Prop37
 90
       50
102
RTVSPost2010PropOp37
 70
     1
102
RTVSPost2010Prop38
140
0.0
102
RTVSPost2010PropOp38
 70
     1
102
RTVSPost2010Prop39
140
1.0
102
RTVSPost2010PropOp39
 70
     1
102
RTVSPost2010Prop40
 90
        0
102
RTVSPost2010PropOp40
 70
     1
102
RTVSPost2010Prop41ColorIndex
 90
       18
102
RTVSPost2010Prop41ColorRGB
 90
        0
102
RTVSPost2010PropOp41
 70
     1
102
RTVSPost2010Prop42
 90
       50
102
RTVSPost2010PropOp42
 70
     1
102
RTVSPost2010Prop43
 90
        3
102
RTVSPost2010PropOp43
 70
     1
102
RTVSPost2010Prop44ColorIndex
 90
        5
102
RTVSPost2010Prop44ColorRGB
 90
      255
102
RTVSPost2010PropOp44
 70
     1
102
RTVSPost2010Prop45
280
     0
102
RTVSPost2010PropOp45
 70
     1
102
RTVSPost2010Prop46
 90
       50
102
RTVSPost2010PropOp46
 70
     1
102
RTVSPost2010Prop47
 90
       50
102
RTVSPost2010PropOp47
 70
     1
102
RTVSPost2010Prop48
 90
       50
102
RTVSPost2010PropOp48
 70
     1
102
RTVSPost2010Prop49
280
     0
102
RTVSPost2010PropOp49
 70
     1
102
RTVSPost2010Prop50
 90
       50
102
RTVSPost2010PropOp50
 70
     1
102
RTVSPost2010Prop51ColorIndex
 90
      256
102
RTVSPost2010Prop51ColorRGB
 90
-16777216
102
RTVSPost2010PropOp51
 70
     0
102
RTVSPost2010Prop52
140
1.0
102
RTVSPost2010PropOp52
 70
     0
102
RTVSPost2010Prop53
 90
        2
102
RTVSPost2010PropOp53
 70
     1
102
RTVSPost2010Prop54
  1
strokes_ogs.tif
102
RTVSPost2010PropOp54
 70
     1
102
RTVSPost2010Prop55
280
     0
102
RTVSPost2010PropOp55
 70
     1
102
RTVSPost2010Prop56
140
1.0
102
RTVSPost2010PropOp56
 70
     1
102
RTVSPost2010Prop57
140
1.0
102
RTVSPost2010PropOp57
 70
     1
  0
XRECORD
  5
21A
102
{ACAD_REACTORS
330
219
102
}
330
219
100
AcDbXrecord
280
     1
102
RTVSPropertyOp0
 70
     1
102
RTVSPropertyOp1
 70
     1
102
RTVSPropertyOp2
 70
     1
102
RTVSPropertyOp3
 70
     1
102
RTVSPropertyOp4
 70
     1
102
RTVSPropertyOp5
 70
     1
102
RTVSPropertyOp6
 70
     1
102
RTVSPropertyOp7
 70
     1
102
RTVSPropertyOp8
 70
     1
102
RTVSPropertyOp9
 70
     1
102
RTVSPropertyOp10
 70
     1
102
RTVSPropertyOp11
 70
     1
102
RTVSPropertyOp12
 70
     1
102
RTVSPropertyOp13
 70
     1
102
RTVSPropertyOp14
 70
     1
102
RTVSPropertyOp15
 70
     1
102
RTVSPropertyOp16
 70
     1
102
RTVSPropertyOp17
 70
     1
102
RTVSPropertyOp18
 70
     1
102
RTVSPropertyOp19
 70
     1
102
RTVSPropertyOp20
 70
     1
102
RTVSPropertyOp21
 70
     1
102
RTVSPropertyOp22
 70
     1
102
RTVSPropertyOp23
 70
     1
102
RTVSPropertyOp24
 70
     1
102
RTVSPropertyOp25
 70
     1
102
RTVSPropertyOp26
 70
     1
102
RTVSPropertyOp27
 70
     1
102
RTVSPropertyOp28
 70
     1
102
RTVSPropertyOp29
 70
     1
102
RTVSPropertyOp30
 70
     1
102
RTVSPropertyOp31
 70
     1
102
RTVSPropertyOp32
 70
     1
102
RTVSPropertyOp33
 70
     1
102
RTVSPropertyOp34
 70
     1
102
RTVSPropertyOp35
 70
     1
102
RTVSPropertyOp36
 70
     1
102
RTVSPropertyOp37
 70
     1
102
RTVSPropertyOp38
 70
     1
102
RTVSPropertyOp39
 70
     1
102
RTVSPropertyOp40
 70
     1
102
RTVSPropertyOp41
 70
     1
102
RTVSPropertyOp42
 70
     1
102
RTVSPropertyOp43
 70
     1
102
RTVSPropertyOp44
 70
     1
102
RTVSPropertyOp45
 70
     1
102
RTVSPropertyOp46
 70
     1
102
RTVSPropertyOp47
 70
     1
102
RTVSPropertyOp48
 70
     1
102
RTVSPropertyOp49
 70
     1
102
RTVSPropertyOp50
 70
     1
102
RTVSPropertyOp51
 70
     0
102
RTVSPropertyOp52
 70
     0
102
RTVSPropertyOp53
 70
     1
102
RTVSPropertyOp54
 70
     1
102
RTVSPropertyOp55
 70
     1
102
RTVSPropertyOp56
 70
     1
102
RTVSPropertyOp57
 70
     1
102
RTVSPost2010Prop28
280
     0
102
RTVSPost2010PropOp28
 70
     1
102
RTVSPost2010Prop29
280
     1
102
RTVSPost2010PropOp29
 70
     1
102
RTVSPost2010Prop30
280
     1
102
RTVSPost2010PropOp30
 70
     1
102
RTVSPost2010Prop31
280
     0
102
RTVSPost2010PropOp31
 70
     1
102
RTVSPost2010Prop32
280
     0
102
RTVSPost2010PropOp32
 70
     1
102
RTVSPost2010Prop33
280
     0
102
RTVSPost2010PropOp33
 70
     1
102
RTVSPost2010Prop34
280
     0
102
RTVSPost2010PropOp34
 70
     1
102
RTVSPost2010Prop35
280
     0
102
RTVSPost2010PropOp35
 70
     1
102
RTVSPost2010Prop36
280
     0
102
RTVSPost2010PropOp36
 70
     1
102
RTVSPost2010Prop37
 90
       50
102
RTVSPost2010PropOp37
 70
     1
102
RTVSPost2010Prop38
140
0.0
102
RTVSPost2010PropOp38
 70
     1
102
RTVSPost2010Prop39
140
1.0
102
RTVSPost2010PropOp39
 70
     1
102
RTVSPost2010Prop40
 90
        0
102
RTVSPost2010PropOp40
 70
     1
102
RTVSPost2010Prop41ColorIndex
 90
       18
102
RTVSPost2010Prop41ColorRGB
 90
        0
102
RTVSPost2010PropOp41
 70
     1
102
RTVSPost2010Prop42
 90
       50
102
RTVSPost2010PropOp42
 70
     1
102
RTVSPost2010Prop43
 90
        3
102
RTVSPost2010PropOp43
 70
     1
102
RTVSPost2010Prop44ColorIndex
 90
        5
102
RTVSPost2010Prop44ColorRGB
 90
      255
102
RTVSPost2010PropOp44
 70
     1
102
RTVSPost2010Prop45
280
     0
102
RTVSPost2010PropOp45
 70
     1
102
RTVSPost2010Prop46
 90
       50
102
RTVSPost2010PropOp46
 70
     1
102
RTVSPost2010Prop47
 90
       50
102
RTVSPost2010PropOp47
 70
     1
102
RTVSPost2010Prop48
 90
       50
102
RTVSPost2010PropOp48
 70
     1
102
RTVSPost2010Prop49
280
     0
102
RTVSPost2010PropOp49
 70
     1
102
RTVSPost2010Prop50
 90
       50
102
RTVSPost2010PropOp50
 70
     1
102
RTVSPost2010Prop51ColorIndex
 90
      256
102
RTVSPost2010Prop51ColorRGB
 90
-16777216
102
RTVSPost2010PropOp51
 70
     0
102
RTVSPost2010Prop52
140
1.0
102
RTVSPost2010PropOp52
 70
     0
102
RTVSPost2010Prop53
 90
        2
102
RTVSPost2010PropOp53
 70
     1
102
RTVSPost2010Prop54
  1
strokes_ogs.tif
102
RTVSPost2010PropOp54
 70
     1
102
RTVSPost2010Prop55
280
     0
102
RTVSPost2010PropOp55
 70
     1
102
RTVSPost2010Prop56
140
1.0
102
RTVSPost2010PropOp56
 70
     1
102
RTVSPost2010Prop57
140
1.0
102
RTVSPost2010PropOp57
 70
     1
  0
XRECORD
  5
22A
102
{ACAD_REACTORS
330
229
102
}
330
229
100
AcDbXrecord
280
     1
102
RTVSPropertyOp0
 70
     0
102
RTVSPropertyOp1
 70
     0
102
RTVSPropertyOp2
 70
     0
102
RTVSPropertyOp3
 70
     0
102
RTVSPropertyOp4
 70
     0
102
RTVSPropertyOp5
 70
     0
102
RTVSPropertyOp6
 70
     0
102
RTVSPropertyOp7
 70
     0
102
RTVSPropertyOp8
 70
     0
102
RTVSPropertyOp9
 70
     0
102
RTVSPropertyOp10
 70
     0
102
RTVSPropertyOp11
 70
     0
102
RTVSPropertyOp12
 70
     0
102
RTVSPropertyOp13
 70
     0
102
RTVSPropertyOp14
 70
     2
102
RTVSPropertyOp15
 70
     0
102
RTVSPropertyOp16
 70
     0
102
RTVSPropertyOp17
 70
     0
102
RTVSPropertyOp18
 70
     0
102
RTVSPropertyOp19
 70
     0
102
RTVSPropertyOp20
 70
     0
102
RTVSPropertyOp21
 70
     0
102
RTVSPropertyOp22
 70
     0
102
RTVSPropertyOp23
 70
     0
102
RTVSPropertyOp24
 70
     0
102
RTVSPropertyOp25
 70
     0
102
RTVSPropertyOp26
 70
     0
102
RTVSPropertyOp27
 70
     0
102
RTVSPropertyOp28
 70
     0
102
RTVSPropertyOp29
 70
     0
102
RTVSPropertyOp30
 70
     0
102
RTVSPropertyOp31
 70
     0
102
RTVSPropertyOp32
 70
     0
102
RTVSPropertyOp33
 70
     0
102
RTVSPropertyOp34
 70
     0
102
RTVSPropertyOp35
 70
     0
102
RTVSPropertyOp36
 70
     0
102
RTVSPropertyOp37
 70
     0
102
RTVSPropertyOp38
 70
     0
102
RTVSPropertyOp39
 70
     0
102
RTVSPropertyOp40
 70
     0
102
RTVSPropertyOp41
 70
     0
102
RTVSPropertyOp42
 70
     0
102
RTVSPropertyOp43
 70
     0
102
RTVSPropertyOp44
 70
     0
102
RTVSPropertyOp45
 70
     0
102
RTVSPropertyOp46
 70
     0
102
RTVSPropertyOp47
 70
     0
102
RTVSPropertyOp48
 70
     0
102
RTVSPropertyOp49
 70
     0
102
RTVSPropertyOp50
 70
     0
102
RTVSPropertyOp51
 70
     0
102
RTVSPropertyOp52
 70
     0
102
RTVSPropertyOp53
 70
     0
102
RTVSPropertyOp54
 70
     0
102
RTVSPropertyOp55
 70
     0
102
RTVSPropertyOp56
 70
     0
102
RTVSPropertyOp57
 70
     0
102
RTVSPost2010Prop28
280
     0
102
RTVSPost2010PropOp28
 70
     0
102
RTVSPost2010Prop29
280
     1
102
RTVSPost2010PropOp29
 70
     0
102
RTVSPost2010Prop30
280
     1
102
RTVSPost2010PropOp30
 70
     0
102
RTVSPost2010Prop31
280
     0
102
RTVSPost2010PropOp31
 70
     0
102
RTVSPost2010Prop32
280
     0
102
RTVSPost2010PropOp32
 70
     0
102
RTVSPost2010Prop33
280
     0
102
RTVSPost2010PropOp33
 70
     0
102
RTVSPost2010Prop34
280
     0
102
RTVSPost2010PropOp34
 70
     0
102
RTVSPost2010Prop35
280
     0
102
RTVSPost2010PropOp35
 70
     0
102
RTVSPost2010Prop36
280
     0
102
RTVSPost2010PropOp36
 70
     0
102
RTVSPost2010Prop37
 90
       50
102
RTVSPost2010PropOp37
 70
     0
102
RTVSPost2010Prop38
140
0.0
102
RTVSPost2010PropOp38
 70
     0
102
RTVSPost2010Prop39
140
1.0
102
RTVSPost2010PropOp39
 70
     0
102
RTVSPost2010Prop40
 90
        0
102
RTVSPost2010PropOp40
 70
     0
102
RTVSPost2010Prop41ColorIndex
 90
       18
102
RTVSPost2010Prop41ColorRGB
 90
        0
102
RTVSPost2010PropOp41
 70
     0
102
RTVSPost2010Prop42
 90
       50
102
RTVSPost2010PropOp42
 70
     0
102
RTVSPost2010Prop43
 90
        3
102
RTVSPost2010PropOp43
 70
     0
102
RTVSPost2010Prop44ColorIndex
 90
        5
102
RTVSPost2010Prop44ColorRGB
 90
      255
102
RTVSPost2010PropOp44
 70
     0
102
RTVSPost2010Prop45
280
     0
102
RTVSPost2010PropOp45
 70
     0
102
RTVSPost2010Prop46
 90
       50
102
RTVSPost2010PropOp46
 70
     0
102
RTVSPost2010Prop47
 90
       50
102
RTVSPost2010PropOp47
 70
     0
102
RTVSPost2010Prop48
 90
       50
102
RTVSPost2010PropOp48
 70
     0
102
RTVSPost2010Prop49
280
     0
102
RTVSPost2010PropOp49
 70
     0
102
RTVSPost2010Prop50
 90
       50
102
RTVSPost2010PropOp50
 70
     0
102
RTVSPost2010Prop51ColorIndex
 90
      256
102
RTVSPost2010Prop51ColorRGB
 90
-16777216
102
RTVSPost2010PropOp51
 70
     0
102
RTVSPost2010Prop52
140
1.0
102
RTVSPost2010PropOp52
 70
     0
102
RTVSPost2010Prop53
 90
        2
102
RTVSPost2010PropOp53
 70
     0
102
RTVSPost2010Prop54
  1
strokes_ogs.tif
102
RTVSPost2010PropOp54
 70
     0
102
RTVSPost2010Prop55
280
     0
102
RTVSPost2010PropOp55
 70
     0
102
RTVSPost2010Prop56
140
1.0
102
RTVSPost2010PropOp56
 70
     0
102
RTVSPost2010Prop57
140
1.0
102
RTVSPost2010PropOp57
 70
     0
  0
XRECORD
  5
222
102
{ACAD_REACTORS
330
221
102
}
330
221
100
AcDbXrecord
280
     1
102
RTVSPropertyOp0
 70
     1
102
RTVSPropertyOp1
 70
     1
102
RTVSPropertyOp2
 70
     1
102
RTVSPropertyOp3
 70
     1
102
RTVSPropertyOp4
 70
     1
102
RTVSPropertyOp5
 70
     1
102
RTVSPropertyOp6
 70
     1
102
RTVSPropertyOp7
 70
     1
102
RTVSPropertyOp8
 70
     1
102
RTVSPropertyOp9
 70
     1
102
RTVSPropertyOp10
 70
     1
102
RTVSPropertyOp11
 70
     1
102
RTVSPropertyOp12
 70
     1
102
RTVSPropertyOp13
 70
     1
102
RTVSPropertyOp14
 70
     1
102
RTVSPropertyOp15
 70
     1
102
RTVSPropertyOp16
 70
     1
102
RTVSPropertyOp17
 70
     1
102
RTVSPropertyOp18
 70
     1
102
RTVSPropertyOp19
 70
     1
102
RTVSPropertyOp20
 70
     1
102
RTVSPropertyOp21
 70
     1
102
RTVSPropertyOp22
 70
     1
102
RTVSPropertyOp23
 70
     1
102
RTVSPropertyOp24
 70
     1
102
RTVSPropertyOp25
 70
     1
102
RTVSPropertyOp26
 70
     1
102
RTVSPropertyOp27
 70
     1
102
RTVSPropertyOp28
 70
     1
102
RTVSPropertyOp29
 70
     1
102
RTVSPropertyOp30
 70
     1
102
RTVSPropertyOp31
 70
     1
102
RTVSPropertyOp32
 70
     1
102
RTVSPropertyOp33
 70
     1
102
RTVSPropertyOp34
 70
     1
102
RTVSPropertyOp35
 70
     1
102
RTVSPropertyOp36
 70
     1
102
RTVSPropertyOp37
 70
     1
102
RTVSPropertyOp38
 70
     1
102
RTVSPropertyOp39
 70
     1
102
RTVSPropertyOp40
 70
     1
102
RTVSPropertyOp41
 70
     1
102
RTVSPropertyOp42
 70
     1
102
RTVSPropertyOp43
 70
     1
102
RTVSPropertyOp44
 70
     1
102
RTVSPropertyOp45
 70
     1
102
RTVSPropertyOp46
 70
     1
102
RTVSPropertyOp47
 70
     1
102
RTVSPropertyOp48
 70
     1
102
RTVSPropertyOp49
 70
     1
102
RTVSPropertyOp50
 70
     1
102
RTVSPropertyOp51
 70
     0
102
RTVSPropertyOp52
 70
     0
102
RTVSPropertyOp53
 70
     1
102
RTVSPropertyOp54
 70
     1
102
RTVSPropertyOp55
 70
     1
102
RTVSPropertyOp56
 70
     1
102
RTVSPropertyOp57
 70
     1
102
RTVSPost2010Prop28
280
     0
102
RTVSPost2010PropOp28
 70
     1
102
RTVSPost2010Prop29
280
     1
102
RTVSPost2010PropOp29
 70
     1
102
RTVSPost2010Prop30
280
     1
102
RTVSPost2010PropOp30
 70
     1
102
RTVSPost2010Prop31
280
     0
102
RTVSPost2010PropOp31
 70
     1
102
RTVSPost2010Prop32
280
     0
102
RTVSPost2010PropOp32
 70
     1
102
RTVSPost2010Prop33
280
     0
102
RTVSPost2010PropOp33
 70
     1
102
RTVSPost2010Prop34
280
     0
102
RTVSPost2010PropOp34
 70
     1
102
RTVSPost2010Prop35
280
     0
102
RTVSPost2010PropOp35
 70
     1
102
RTVSPost2010Prop36
280
     0
102
RTVSPost2010PropOp36
 70
     1
102
RTVSPost2010Prop37
 90
       50
102
RTVSPost2010PropOp37
 70
     1
102
RTVSPost2010Prop38
140
0.0
102
RTVSPost2010PropOp38
 70
     1
102
RTVSPost2010Prop39
140
1.0
102
RTVSPost2010PropOp39
 70
     1
102
RTVSPost2010Prop40
 90
        0
102
RTVSPost2010PropOp40
 70
     1
102
RTVSPost2010Prop41ColorIndex
 90
       18
102
RTVSPost2010Prop41ColorRGB
 90
        0
102
RTVSPost2010PropOp41
 70
     1
102
RTVSPost2010Prop42
 90
       50
102
RTVSPost2010PropOp42
 70
     1
102
RTVSPost2010Prop43
 90
        3
102
RTVSPost2010PropOp43
 70
     1
102
RTVSPost2010Prop44ColorIndex
 90
        5
102
RTVSPost2010Prop44ColorRGB
 90
      255
102
RTVSPost2010PropOp44
 70
     1
102
RTVSPost2010Prop45
280
     0
102
RTVSPost2010PropOp45
 70
     1
102
RTVSPost2010Prop46
 90
       50
102
RTVSPost2010PropOp46
 70
     1
102
RTVSPost2010Prop47
 90
       50
102
RTVSPost2010PropOp47
 70
     1
102
RTVSPost2010Prop48
 90
       50
102
RTVSPost2010PropOp48
 70
     1
102
RTVSPost2010Prop49
280
     0
102
RTVSPost2010PropOp49
 70
     1
102
RTVSPost2010Prop50
 90
       50
102
RTVSPost2010PropOp50
 70
     1
102
RTVSPost2010Prop51ColorIndex
 90
      256
102
RTVSPost2010Prop51ColorRGB
 90
-16777216
102
RTVSPost2010PropOp51
 70
     0
102
RTVSPost2010Prop52
140
1.0
102
RTVSPost2010PropOp52
 70
     0
102
RTVSPost2010Prop53
 90
        2
102
RTVSPost2010PropOp53
 70
     1
102
RTVSPost2010Prop54
  1
strokes_ogs.tif
102
RTVSPost2010PropOp54
 70
     1
102
RTVSPost2010Prop55
280
     0
102
RTVSPost2010PropOp55
 70
     1
102
RTVSPost2010Prop56
140
1.0
102
RTVSPost2010PropOp56
 70
     1
102
RTVSPost2010Prop57
140
1.0
102
RTVSPost2010PropOp57
 70
     1
  0
XRECORD
  5
206
102
{ACAD_REACTORS
330
205
102
}
330
205
100
AcDbXrecord
280
     1
102
RTVSPropertyOp0
 70
     1
102
RTVSPropertyOp1
 70
     1
102
RTVSPropertyOp2
 70
     1
102
RTVSPropertyOp3
 70
     1
102
RTVSPropertyOp4
 70
     1
102
RTVSPropertyOp5
 70
     1
102
RTVSPropertyOp6
 70
     1
102
RTVSPropertyOp7
 70
     1
102
RTVSPropertyOp8
 70
     1
102
RTVSPropertyOp9
 70
     1
102
RTVSPropertyOp10
 70
     1
102
RTVSPropertyOp11
 70
     1
102
RTVSPropertyOp12
 70
     1
102
RTVSPropertyOp13
 70
     1
102
RTVSPropertyOp14
 70
     1
102
RTVSPropertyOp15
 70
     1
102
RTVSPropertyOp16
 70
     1
102
RTVSPropertyOp17
 70
     1
102
RTVSPropertyOp18
 70
     1
102
RTVSPropertyOp19
 70
     1
102
RTVSPropertyOp20
 70
     1
102
RTVSPropertyOp21
 70
     1
102
RTVSPropertyOp22
 70
     1
102
RTVSPropertyOp23
 70
     1
102
RTVSPropertyOp24
 70
     1
102
RTVSPropertyOp25
 70
     1
102
RTVSPropertyOp26
 70
     1
102
RTVSPropertyOp27
 70
     1
102
RTVSPropertyOp28
 70
     1
102
RTVSPropertyOp29
 70
     1
102
RTVSPropertyOp30
 70
     1
102
RTVSPropertyOp31
 70
     1
102
RTVSPropertyOp32
 70
     1
102
RTVSPropertyOp33
 70
     1
102
RTVSPropertyOp34
 70
     1
102
RTVSPropertyOp35
 70
     1
102
RTVSPropertyOp36
 70
     1
102
RTVSPropertyOp37
 70
     1
102
RTVSPropertyOp38
 70
     1
102
RTVSPropertyOp39
 70
     1
102
RTVSPropertyOp40
 70
     1
102
RTVSPropertyOp41
 70
     1
102
RTVSPropertyOp42
 70
     1
102
RTVSPropertyOp43
 70
     1
102
RTVSPropertyOp44
 70
     1
102
RTVSPropertyOp45
 70
     1
102
RTVSPropertyOp46
 70
     1
102
RTVSPropertyOp47
 70
     1
102
RTVSPropertyOp48
 70
     1
102
RTVSPropertyOp49
 70
     1
102
RTVSPropertyOp50
 70
     1
102
RTVSPropertyOp51
 70
     0
102
RTVSPropertyOp52
 70
     0
102
RTVSPropertyOp53
 70
     1
102
RTVSPropertyOp54
 70
     1
102
RTVSPropertyOp55
 70
     1
102
RTVSPropertyOp56
 70
     1
102
RTVSPropertyOp57
 70
     1
102
RTVSPost2010Prop28
280
     0
102
RTVSPost2010PropOp28
 70
     1
102
RTVSPost2010Prop29
280
     1
102
RTVSPost2010PropOp29
 70
     1
102
RTVSPost2010Prop30
280
     1
102
RTVSPost2010PropOp30
 70
     1
102
RTVSPost2010Prop31
280
     0
102
RTVSPost2010PropOp31
 70
     1
102
RTVSPost2010Prop32
280
     0
102
RTVSPost2010PropOp32
 70
     1
102
RTVSPost2010Prop33
280
     0
102
RTVSPost2010PropOp33
 70
     1
102
RTVSPost2010Prop34
280
     0
102
RTVSPost2010PropOp34
 70
     1
102
RTVSPost2010Prop35
280
     0
102
RTVSPost2010PropOp35
 70
     1
102
RTVSPost2010Prop36
280
     0
102
RTVSPost2010PropOp36
 70
     1
102
RTVSPost2010Prop37
 90
       50
102
RTVSPost2010PropOp37
 70
     1
102
RTVSPost2010Prop38
140
0.0
102
RTVSPost2010PropOp38
 70
     1
102
RTVSPost2010Prop39
140
1.0
102
RTVSPost2010PropOp39
 70
     1
102
RTVSPost2010Prop40
 90
        0
102
RTVSPost2010PropOp40
 70
     1
102
RTVSPost2010Prop41ColorIndex
 90
       18
102
RTVSPost2010Prop41ColorRGB
 90
        0
102
RTVSPost2010PropOp41
 70
     1
102
RTVSPost2010Prop42
 90
       50
102
RTVSPost2010PropOp42
 70
     1
102
RTVSPost2010Prop43
 90
        3
102
RTVSPost2010PropOp43
 70
     1
102
RTVSPost2010Prop44ColorIndex
 90
        5
102
RTVSPost2010Prop44ColorRGB
 90
      255
102
RTVSPost2010PropOp44
 70
     1
102
RTVSPost2010Prop45
280
     0
102
RTVSPost2010PropOp45
 70
     1
102
RTVSPost2010Prop46
 90
       50
102
RTVSPost2010PropOp46
 70
     1
102
RTVSPost2010Prop47
 90
       50
102
RTVSPost2010PropOp47
 70
     1
102
RTVSPost2010Prop48
 90
       50
102
RTVSPost2010PropOp48
 70
     1
102
RTVSPost2010Prop49
280
     0
102
RTVSPost2010PropOp49
 70
     1
102
RTVSPost2010Prop50
 90
       50
102
RTVSPost2010PropOp50
 70
     1
102
RTVSPost2010Prop51ColorIndex
 90
      256
102
RTVSPost2010Prop51ColorRGB
 90
-16777216
102
RTVSPost2010PropOp51
 70
     0
102
RTVSPost2010Prop52
140
1.0
102
RTVSPost2010PropOp52
 70
     0
102
RTVSPost2010Prop53
 90
        2
102
RTVSPost2010PropOp53
 70
     1
102
RTVSPost2010Prop54
  1
strokes_ogs.tif
102
RTVSPost2010PropOp54
 70
     1
102
RTVSPost2010Prop55
280
     0
102
RTVSPost2010PropOp55
 70
     1
102
RTVSPost2010Prop56
140
1.0
102
RTVSPost2010PropOp56
 70
     1
102
RTVSPost2010Prop57
140
1.0
102
RTVSPost2010PropOp57
 70
     1
  0
XRECORD
  5
208
102
{ACAD_REACTORS
330
207
102
}
330
207
100
AcDbXrecord
280
     1
102
RTVSPropertyOp0
 70
     1
102
RTVSPropertyOp1
 70
     1
102
RTVSPropertyOp2
 70
     1
102
RTVSPropertyOp3
 70
     1
102
RTVSPropertyOp4
 70
     1
102
RTVSPropertyOp5
 70
     1
102
RTVSPropertyOp6
 70
     1
102
RTVSPropertyOp7
 70
     1
102
RTVSPropertyOp8
 70
     1
102
RTVSPropertyOp9
 70
     1
102
RTVSPropertyOp10
 70
     1
102
RTVSPropertyOp11
 70
     1
102
RTVSPropertyOp12
 70
     1
102
RTVSPropertyOp13
 70
     1
102
RTVSPropertyOp14
 70
     1
102
RTVSPropertyOp15
 70
     1
102
RTVSPropertyOp16
 70
     1
102
RTVSPropertyOp17
 70
     1
102
RTVSPropertyOp18
 70
     1
102
RTVSPropertyOp19
 70
     1
102
RTVSPropertyOp20
 70
     1
102
RTVSPropertyOp21
 70
     1
102
RTVSPropertyOp22
 70
     1
102
RTVSPropertyOp23
 70
     1
102
RTVSPropertyOp24
 70
     1
102
RTVSPropertyOp25
 70
     1
102
RTVSPropertyOp26
 70
     1
102
RTVSPropertyOp27
 70
     1
102
RTVSPropertyOp28
 70
     1
102
RTVSPropertyOp29
 70
     1
102
RTVSPropertyOp30
 70
     1
102
RTVSPropertyOp31
 70
     1
102
RTVSPropertyOp32
 70
     1
102
RTVSPropertyOp33
 70
     1
102
RTVSPropertyOp34
 70
     1
102
RTVSPropertyOp35
 70
     1
102
RTVSPropertyOp36
 70
     1
102
RTVSPropertyOp37
 70
     1
102
RTVSPropertyOp38
 70
     1
102
RTVSPropertyOp39
 70
     1
102
RTVSPropertyOp40
 70
     1
102
RTVSPropertyOp41
 70
     1
102
RTVSPropertyOp42
 70
     1
102
RTVSPropertyOp43
 70
     1
102
RTVSPropertyOp44
 70
     1
102
RTVSPropertyOp45
 70
     1
102
RTVSPropertyOp46
 70
     1
102
RTVSPropertyOp47
 70
     1
102
RTVSPropertyOp48
 70
     1
102
RTVSPropertyOp49
 70
     1
102
RTVSPropertyOp50
 70
     1
102
RTVSPropertyOp51
 70
     0
102
RTVSPropertyOp52
 70
     0
102
RTVSPropertyOp53
 70
     1
102
RTVSPropertyOp54
 70
     1
102
RTVSPropertyOp55
 70
     1
102
RTVSPropertyOp56
 70
     1
102
RTVSPropertyOp57
 70
     1
102
RTVSPost2010Prop28
280
     0
102
RTVSPost2010PropOp28
 70
     1
102
RTVSPost2010Prop29
280
     1
102
RTVSPost2010PropOp29
 70
     1
102
RTVSPost2010Prop30
280
     1
102
RTVSPost2010PropOp30
 70
     1
102
RTVSPost2010Prop31
280
     0
102
RTVSPost2010PropOp31
 70
     1
102
RTVSPost2010Prop32
280
     0
102
RTVSPost2010PropOp32
 70
     1
102
RTVSPost2010Prop33
280
     0
102
RTVSPost2010PropOp33
 70
     1
102
RTVSPost2010Prop34
280
     0
102
RTVSPost2010PropOp34
 70
     1
102
RTVSPost2010Prop35
280
     0
102
RTVSPost2010PropOp35
 70
     1
102
RTVSPost2010Prop36
280
     0
102
RTVSPost2010PropOp36
 70
     1
102
RTVSPost2010Prop37
 90
       50
102
RTVSPost2010PropOp37
 70
     1
102
RTVSPost2010Prop38
140
0.0
102
RTVSPost2010PropOp38
 70
     1
102
RTVSPost2010Prop39
140
1.0
102
RTVSPost2010PropOp39
 70
     1
102
RTVSPost2010Prop40
 90
        0
102
RTVSPost2010PropOp40
 70
     1
102
RTVSPost2010Prop41ColorIndex
 90
       18
102
RTVSPost2010Prop41ColorRGB
 90
        0
102
RTVSPost2010PropOp41
 70
     1
102
RTVSPost2010Prop42
 90
       50
102
RTVSPost2010PropOp42
 70
     1
102
RTVSPost2010Prop43
 90
        3
102
RTVSPost2010PropOp43
 70
     1
102
RTVSPost2010Prop44ColorIndex
 90
        5
102
RTVSPost2010Prop44ColorRGB
 90
      255
102
RTVSPost2010PropOp44
 70
     1
102
RTVSPost2010Prop45
280
     0
102
RTVSPost2010PropOp45
 70
     1
102
RTVSPost2010Prop46
 90
       50
102
RTVSPost2010PropOp46
 70
     1
102
RTVSPost2010Prop47
 90
       50
102
RTVSPost2010PropOp47
 70
     1
102
RTVSPost2010Prop48
 90
       50
102
RTVSPost2010PropOp48
 70
     1
102
RTVSPost2010Prop49
280
     0
102
RTVSPost2010PropOp49
 70
     1
102
RTVSPost2010Prop50
 90
       50
102
RTVSPost2010PropOp50
 70
     1
102
RTVSPost2010Prop51ColorIndex
 90
      256
102
RTVSPost2010Prop51ColorRGB
 90
-16777216
102
RTVSPost2010PropOp51
 70
     0
102
RTVSPost2010Prop52
140
1.0
102
RTVSPost2010PropOp52
 70
     0
102
RTVSPost2010Prop53
 90
        2
102
RTVSPost2010PropOp53
 70
     1
102
RTVSPost2010Prop54
  1
strokes_ogs.tif
102
RTVSPost2010PropOp54
 70
     1
102
RTVSPost2010Prop55
280
     0
102
RTVSPost2010PropOp55
 70
     1
102
RTVSPost2010Prop56
140
1.0
102
RTVSPost2010PropOp56
 70
     1
102
RTVSPost2010Prop57
140
1.0
102
RTVSPost2010PropOp57
 70
     1
  0
XRECORD
  5
20A
102
{ACAD_REACTORS
330
209
102
}
330
209
100
AcDbXrecord
280
     1
102
RTVSPropertyOp0
 70
     1
102
RTVSPropertyOp1
 70
     1
102
RTVSPropertyOp2
 70
     1
102
RTVSPropertyOp3
 70
     1
102
RTVSPropertyOp4
 70
     1
102
RTVSPropertyOp5
 70
     1
102
RTVSPropertyOp6
 70
     1
102
RTVSPropertyOp7
 70
     1
102
RTVSPropertyOp8
 70
     1
102
RTVSPropertyOp9
 70
     1
102
RTVSPropertyOp10
 70
     1
102
RTVSPropertyOp11
 70
     1
102
RTVSPropertyOp12
 70
     1
102
RTVSPropertyOp13
 70
     1
102
RTVSPropertyOp14
 70
     1
102
RTVSPropertyOp15
 70
     1
102
RTVSPropertyOp16
 70
     1
102
RTVSPropertyOp17
 70
     1
102
RTVSPropertyOp18
 70
     1
102
RTVSPropertyOp19
 70
     1
102
RTVSPropertyOp20
 70
     1
102
RTVSPropertyOp21
 70
     1
102
RTVSPropertyOp22
 70
     1
102
RTVSPropertyOp23
 70
     1
102
RTVSPropertyOp24
 70
     1
102
RTVSPropertyOp25
 70
     1
102
RTVSPropertyOp26
 70
     1
102
RTVSPropertyOp27
 70
     1
102
RTVSPropertyOp28
 70
     1
102
RTVSPropertyOp29
 70
     1
102
RTVSPropertyOp30
 70
     1
102
RTVSPropertyOp31
 70
     1
102
RTVSPropertyOp32
 70
     1
102
RTVSPropertyOp33
 70
     1
102
RTVSPropertyOp34
 70
     1
102
RTVSPropertyOp35
 70
     1
102
RTVSPropertyOp36
 70
     1
102
RTVSPropertyOp37
 70
     1
102
RTVSPropertyOp38
 70
     1
102
RTVSPropertyOp39
 70
     1
102
RTVSPropertyOp40
 70
     1
102
RTVSPropertyOp41
 70
     1
102
RTVSPropertyOp42
 70
     1
102
RTVSPropertyOp43
 70
     1
102
RTVSPropertyOp44
 70
     1
102
RTVSPropertyOp45
 70
     1
102
RTVSPropertyOp46
 70
     1
102
RTVSPropertyOp47
 70
     1
102
RTVSPropertyOp48
 70
     1
102
RTVSPropertyOp49
 70
     1
102
RTVSPropertyOp50
 70
     1
102
RTVSPropertyOp51
 70
     0
102
RTVSPropertyOp52
 70
     0
102
RTVSPropertyOp53
 70
     1
102
RTVSPropertyOp54
 70
     1
102
RTVSPropertyOp55
 70
     1
102
RTVSPropertyOp56
 70
     1
102
RTVSPropertyOp57
 70
     1
102
RTVSPost2010Prop28
280
     0
102
RTVSPost2010PropOp28
 70
     1
102
RTVSPost2010Prop29
280
     1
102
RTVSPost2010PropOp29
 70
     1
102
RTVSPost2010Prop30
280
     1
102
RTVSPost2010PropOp30
 70
     1
102
RTVSPost2010Prop31
280
     0
102
RTVSPost2010PropOp31
 70
     1
102
RTVSPost2010Prop32
280
     0
102
RTVSPost2010PropOp32
 70
     1
102
RTVSPost2010Prop33
280
     0
102
RTVSPost2010PropOp33
 70
     1
102
RTVSPost2010Prop34
280
     0
102
RTVSPost2010PropOp34
 70
     1
102
RTVSPost2010Prop35
280
     0
102
RTVSPost2010PropOp35
 70
     1
102
RTVSPost2010Prop36
280
     0
102
RTVSPost2010PropOp36
 70
     1
102
RTVSPost2010Prop37
 90
       50
102
RTVSPost2010PropOp37
 70
     1
102
RTVSPost2010Prop38
140
0.0
102
RTVSPost2010PropOp38
 70
     1
102
RTVSPost2010Prop39
140
1.0
102
RTVSPost2010PropOp39
 70
     1
102
RTVSPost2010Prop40
 90
        0
102
RTVSPost2010PropOp40
 70
     1
102
RTVSPost2010Prop41ColorIndex
 90
       18
102
RTVSPost2010Prop41ColorRGB
 90
        0
102
RTVSPost2010PropOp41
 70
     1
102
RTVSPost2010Prop42
 90
       50
102
RTVSPost2010PropOp42
 70
     1
102
RTVSPost2010Prop43
 90
        3
102
RTVSPost2010PropOp43
 70
     1
102
RTVSPost2010Prop44ColorIndex
 90
        5
102
RTVSPost2010Prop44ColorRGB
 90
      255
102
RTVSPost2010PropOp44
 70
     1
102
RTVSPost2010Prop45
280
     0
102
RTVSPost2010PropOp45
 70
     1
102
RTVSPost2010Prop46
 90
       50
102
RTVSPost2010PropOp46
 70
     1
102
RTVSPost2010Prop47
 90
       50
102
RTVSPost2010PropOp47
 70
     1
102
RTVSPost2010Prop48
 90
       50
102
RTVSPost2010PropOp48
 70
     1
102
RTVSPost2010Prop49
280
     0
102
RTVSPost2010PropOp49
 70
     1
102
RTVSPost2010Prop50
 90
       50
102
RTVSPost2010PropOp50
 70
     1
102
RTVSPost2010Prop51ColorIndex
 90
      256
102
RTVSPost2010Prop51ColorRGB
 90
-16777216
102
RTVSPost2010PropOp51
 70
     0
102
RTVSPost2010Prop52
140
1.0
102
RTVSPost2010PropOp52
 70
     0
102
RTVSPost2010Prop53
 90
        2
102
RTVSPost2010PropOp53
 70
     1
102
RTVSPost2010Prop54
  1
strokes_ogs.tif
102
RTVSPost2010PropOp54
 70
     1
102
RTVSPost2010Prop55
280
     0
102
RTVSPost2010PropOp55
 70
     1
102
RTVSPost2010Prop56
140
1.0
102
RTVSPost2010PropOp56
 70
     1
102
RTVSPost2010Prop57
140
1.0
102
RTVSPost2010PropOp57
 70
     1
  0
XRECORD
  5
20C
102
{ACAD_REACTORS
330
20B
102
}
330
20B
100
AcDbXrecord
280
     1
102
RTVSPropertyOp0
 70
     1
102
RTVSPropertyOp1
 70
     1
102
RTVSPropertyOp2
 70
     1
102
RTVSPropertyOp3
 70
     1
102
RTVSPropertyOp4
 70
     1
102
RTVSPropertyOp5
 70
     1
102
RTVSPropertyOp6
 70
     1
102
RTVSPropertyOp7
 70
     1
102
RTVSPropertyOp8
 70
     1
102
RTVSPropertyOp9
 70
     1
102
RTVSPropertyOp10
 70
     1
102
RTVSPropertyOp11
 70
     1
102
RTVSPropertyOp12
 70
     1
102
RTVSPropertyOp13
 70
     1
102
RTVSPropertyOp14
 70
     1
102
RTVSPropertyOp15
 70
     1
102
RTVSPropertyOp16
 70
     1
102
RTVSPropertyOp17
 70
     1
102
RTVSPropertyOp18
 70
     1
102
RTVSPropertyOp19
 70
     1
102
RTVSPropertyOp20
 70
     1
102
RTVSPropertyOp21
 70
     1
102
RTVSPropertyOp22
 70
     1
102
RTVSPropertyOp23
 70
     1
102
RTVSPropertyOp24
 70
     1
102
RTVSPropertyOp25
 70
     1
102
RTVSPropertyOp26
 70
     1
102
RTVSPropertyOp27
 70
     1
102
RTVSPropertyOp28
 70
     1
102
RTVSPropertyOp29
 70
     1
102
RTVSPropertyOp30
 70
     1
102
RTVSPropertyOp31
 70
     1
102
RTVSPropertyOp32
 70
     1
102
RTVSPropertyOp33
 70
     1
102
RTVSPropertyOp34
 70
     1
102
RTVSPropertyOp35
 70
     1
102
RTVSPropertyOp36
 70
     1
102
RTVSPropertyOp37
 70
     1
102
RTVSPropertyOp38
 70
     1
102
RTVSPropertyOp39
 70
     1
102
RTVSPropertyOp40
 70
     1
102
RTVSPropertyOp41
 70
     1
102
RTVSPropertyOp42
 70
     1
102
RTVSPropertyOp43
 70
     1
102
RTVSPropertyOp44
 70
     1
102
RTVSPropertyOp45
 70
     1
102
RTVSPropertyOp46
 70
     1
102
RTVSPropertyOp47
 70
     1
102
RTVSPropertyOp48
 70
     1
102
RTVSPropertyOp49
 70
     1
102
RTVSPropertyOp50
 70
     1
102
RTVSPropertyOp51
 70
     0
102
RTVSPropertyOp52
 70
     0
102
RTVSPropertyOp53
 70
     1
102
RTVSPropertyOp54
 70
     1
102
RTVSPropertyOp55
 70
     1
102
RTVSPropertyOp56
 70
     1
102
RTVSPropertyOp57
 70
     1
102
RTVSPost2010Prop28
280
     0
102
RTVSPost2010PropOp28
 70
     1
102
RTVSPost2010Prop29
280
     1
102
RTVSPost2010PropOp29
 70
     1
102
RTVSPost2010Prop30
280
     1
102
RTVSPost2010PropOp30
 70
     1
102
RTVSPost2010Prop31
280
     0
102
RTVSPost2010PropOp31
 70
     1
102
RTVSPost2010Prop32
280
     0
102
RTVSPost2010PropOp32
 70
     1
102
RTVSPost2010Prop33
280
     0
102
RTVSPost2010PropOp33
 70
     1
102
RTVSPost2010Prop34
280
     0
102
RTVSPost2010PropOp34
 70
     1
102
RTVSPost2010Prop35
280
     0
102
RTVSPost2010PropOp35
 70
     1
102
RTVSPost2010Prop36
280
     0
102
RTVSPost2010PropOp36
 70
     1
102
RTVSPost2010Prop37
 90
       50
102
RTVSPost2010PropOp37
 70
     1
102
RTVSPost2010Prop38
140
0.0
102
RTVSPost2010PropOp38
 70
     1
102
RTVSPost2010Prop39
140
1.0
102
RTVSPost2010PropOp39
 70
     1
102
RTVSPost2010Prop40
 90
        0
102
RTVSPost2010PropOp40
 70
     1
102
RTVSPost2010Prop41ColorIndex
 90
       18
102
RTVSPost2010Prop41ColorRGB
 90
        0
102
RTVSPost2010PropOp41
 70
     1
102
RTVSPost2010Prop42
 90
       50
102
RTVSPost2010PropOp42
 70
     1
102
RTVSPost2010Prop43
 90
        3
102
RTVSPost2010PropOp43
 70
     1
102
RTVSPost2010Prop44ColorIndex
 90
        5
102
RTVSPost2010Prop44ColorRGB
 90
      255
102
RTVSPost2010PropOp44
 70
     1
102
RTVSPost2010Prop45
280
     0
102
RTVSPost2010PropOp45
 70
     1
102
RTVSPost2010Prop46
 90
       50
102
RTVSPost2010PropOp46
 70
     1
102
RTVSPost2010Prop47
 90
       50
102
RTVSPost2010PropOp47
 70
     1
102
RTVSPost2010Prop48
 90
       50
102
RTVSPost2010PropOp48
 70
     1
102
RTVSPost2010Prop49
280
     0
102
RTVSPost2010PropOp49
 70
     1
102
RTVSPost2010Prop50
 90
       50
102
RTVSPost2010PropOp50
 70
     1
102
RTVSPost2010Prop51ColorIndex
 90
      256
102
RTVSPost2010Prop51ColorRGB
 90
-16777216
102
RTVSPost2010PropOp51
 70
     0
102
RTVSPost2010Prop52
140
1.0
102
RTVSPost2010PropOp52
 70
     0
102
RTVSPost2010Prop53
 90
        2
102
RTVSPost2010PropOp53
 70
     1
102
RTVSPost2010Prop54
  1
strokes_ogs.tif
102
RTVSPost2010PropOp54
 70
     1
102
RTVSPost2010Prop55
280
     0
102
RTVSPost2010PropOp55
 70
     1
102
RTVSPost2010Prop56
140
1.0
102
RTVSPost2010PropOp56
 70
     1
102
RTVSPost2010Prop57
140
1.0
102
RTVSPost2010PropOp57
 70
     1
  0
XRECORD
  5
212
102
{ACAD_REACTORS
330
211
102
}
330
211
100
AcDbXrecord
280
     1
102
RTVSPropertyOp0
 70
     1
102
RTVSPropertyOp1
 70
     1
102
RTVSPropertyOp2
 70
     1
102
RTVSPropertyOp3
 70
     1
102
RTVSPropertyOp4
 70
     1
102
RTVSPropertyOp5
 70
     1
102
RTVSPropertyOp6
 70
     1
102
RTVSPropertyOp7
 70
     1
102
RTVSPropertyOp8
 70
     1
102
RTVSPropertyOp9
 70
     1
102
RTVSPropertyOp10
 70
     1
102
RTVSPropertyOp11
 70
     1
102
RTVSPropertyOp12
 70
     1
102
RTVSPropertyOp13
 70
     1
102
RTVSPropertyOp14
 70
     1
102
RTVSPropertyOp15
 70
     1
102
RTVSPropertyOp16
 70
     1
102
RTVSPropertyOp17
 70
     1
102
RTVSPropertyOp18
 70
     1
102
RTVSPropertyOp19
 70
     1
102
RTVSPropertyOp20
 70
     1
102
RTVSPropertyOp21
 70
     1
102
RTVSPropertyOp22
 70
     1
102
RTVSPropertyOp23
 70
     1
102
RTVSPropertyOp24
 70
     1
102
RTVSPropertyOp25
 70
     1
102
RTVSPropertyOp26
 70
     1
102
RTVSPropertyOp27
 70
     1
102
RTVSPropertyOp28
 70
     1
102
RTVSPropertyOp29
 70
     1
102
RTVSPropertyOp30
 70
     1
102
RTVSPropertyOp31
 70
     1
102
RTVSPropertyOp32
 70
     1
102
RTVSPropertyOp33
 70
     1
102
RTVSPropertyOp34
 70
     1
102
RTVSPropertyOp35
 70
     1
102
RTVSPropertyOp36
 70
     1
102
RTVSPropertyOp37
 70
     1
102
RTVSPropertyOp38
 70
     1
102
RTVSPropertyOp39
 70
     1
102
RTVSPropertyOp40
 70
     1
102
RTVSPropertyOp41
 70
     1
102
RTVSPropertyOp42
 70
     1
102
RTVSPropertyOp43
 70
     1
102
RTVSPropertyOp44
 70
     1
102
RTVSPropertyOp45
 70
     1
102
RTVSPropertyOp46
 70
     1
102
RTVSPropertyOp47
 70
     1
102
RTVSPropertyOp48
 70
     1
102
RTVSPropertyOp49
 70
     1
102
RTVSPropertyOp50
 70
     1
102
RTVSPropertyOp51
 70
     0
102
RTVSPropertyOp52
 70
     0
102
RTVSPropertyOp53
 70
     1
102
RTVSPropertyOp54
 70
     1
102
RTVSPropertyOp55
 70
     1
102
RTVSPropertyOp56
 70
     1
102
RTVSPropertyOp57
 70
     1
102
RTVSPost2010Prop28
280
     0
102
RTVSPost2010PropOp28
 70
     1
102
RTVSPost2010Prop29
280
     1
102
RTVSPost2010PropOp29
 70
     1
102
RTVSPost2010Prop30
280
     1
102
RTVSPost2010PropOp30
 70
     1
102
RTVSPost2010Prop31
280
     0
102
RTVSPost2010PropOp31
 70
     1
102
RTVSPost2010Prop32
280
     0
102
RTVSPost2010PropOp32
 70
     1
102
RTVSPost2010Prop33
280
     0
102
RTVSPost2010PropOp33
 70
     1
102
RTVSPost2010Prop34
280
     0
102
RTVSPost2010PropOp34
 70
     1
102
RTVSPost2010Prop35
280
     0
102
RTVSPost2010PropOp35
 70
     1
102
RTVSPost2010Prop36
280
     0
102
RTVSPost2010PropOp36
 70
     1
102
RTVSPost2010Prop37
 90
       50
102
RTVSPost2010PropOp37
 70
     1
102
RTVSPost2010Prop38
140
0.0
102
RTVSPost2010PropOp38
 70
     1
102
RTVSPost2010Prop39
140
1.0
102
RTVSPost2010PropOp39
 70
     1
102
RTVSPost2010Prop40
 90
        0
102
RTVSPost2010PropOp40
 70
     1
102
RTVSPost2010Prop41ColorIndex
 90
       18
102
RTVSPost2010Prop41ColorRGB
 90
        0
102
RTVSPost2010PropOp41
 70
     1
102
RTVSPost2010Prop42
 90
       50
102
RTVSPost2010PropOp42
 70
     1
102
RTVSPost2010Prop43
 90
        3
102
RTVSPost2010PropOp43
 70
     1
102
RTVSPost2010Prop44ColorIndex
 90
        5
102
RTVSPost2010Prop44ColorRGB
 90
      255
102
RTVSPost2010PropOp44
 70
     1
102
RTVSPost2010Prop45
280
     0
102
RTVSPost2010PropOp45
 70
     1
102
RTVSPost2010Prop46
 90
       50
102
RTVSPost2010PropOp46
 70
     1
102
RTVSPost2010Prop47
 90
       50
102
RTVSPost2010PropOp47
 70
     1
102
RTVSPost2010Prop48
 90
       50
102
RTVSPost2010PropOp48
 70
     1
102
RTVSPost2010Prop49
280
     0
102
RTVSPost2010PropOp49
 70
     1
102
RTVSPost2010Prop50
 90
       50
102
RTVSPost2010PropOp50
 70
     1
102
RTVSPost2010Prop51ColorIndex
 90
      256
102
RTVSPost2010Prop51ColorRGB
 90
-16777216
102
RTVSPost2010PropOp51
 70
     0
102
RTVSPost2010Prop52
140
1.0
102
RTVSPost2010PropOp52
 70
     0
102
RTVSPost2010Prop53
 90
        2
102
RTVSPost2010PropOp53
 70
     1
102
RTVSPost2010Prop54
  1
strokes_ogs.tif
102
RTVSPost2010PropOp54
 70
     1
102
RTVSPost2010Prop55
280
     0
102
RTVSPost2010PropOp55
 70
     1
102
RTVSPost2010Prop56
140
1.0
102
RTVSPost2010PropOp56
 70
     1
102
RTVSPost2010Prop57
140
1.0
102
RTVSPost2010PropOp57
 70
     1
  0
XRECORD
  5
226
102
{ACAD_REACTORS
330
225
102
}
330
225
100
AcDbXrecord
280
     1
102
RTVSPropertyOp0
 70
     0
102
RTVSPropertyOp1
 70
     0
102
RTVSPropertyOp2
 70
     0
102
RTVSPropertyOp3
 70
     0
102
RTVSPropertyOp4
 70
     0
102
RTVSPropertyOp5
 70
     0
102
RTVSPropertyOp6
 70
     0
102
RTVSPropertyOp7
 70
     0
102
RTVSPropertyOp8
 70
     0
102
RTVSPropertyOp9
 70
     0
102
RTVSPropertyOp10
 70
     0
102
RTVSPropertyOp11
 70
     0
102
RTVSPropertyOp12
 70
     0
102
RTVSPropertyOp13
 70
     0
102
RTVSPropertyOp14
 70
     2
102
RTVSPropertyOp15
 70
     0
102
RTVSPropertyOp16
 70
     0
102
RTVSPropertyOp17
 70
     0
102
RTVSPropertyOp18
 70
     0
102
RTVSPropertyOp19
 70
     0
102
RTVSPropertyOp20
 70
     0
102
RTVSPropertyOp21
 70
     0
102
RTVSPropertyOp22
 70
     0
102
RTVSPropertyOp23
 70
     0
102
RTVSPropertyOp24
 70
     0
102
RTVSPropertyOp25
 70
     0
102
RTVSPropertyOp26
 70
     0
102
RTVSPropertyOp27
 70
     0
102
RTVSPropertyOp28
 70
     0
102
RTVSPropertyOp29
 70
     0
102
RTVSPropertyOp30
 70
     0
102
RTVSPropertyOp31
 70
     0
102
RTVSPropertyOp32
 70
     0
102
RTVSPropertyOp33
 70
     0
102
RTVSPropertyOp34
 70
     0
102
RTVSPropertyOp35
 70
     0
102
RTVSPropertyOp36
 70
     0
102
RTVSPropertyOp37
 70
     0
102
RTVSPropertyOp38
 70
     0
102
RTVSPropertyOp39
 70
     0
102
RTVSPropertyOp40
 70
     0
102
RTVSPropertyOp41
 70
     0
102
RTVSPropertyOp42
 70
     0
102
RTVSPropertyOp43
 70
     0
102
RTVSPropertyOp44
 70
     0
102
RTVSPropertyOp45
 70
     0
102
RTVSPropertyOp46
 70
     0
102
RTVSPropertyOp47
 70
     0
102
RTVSPropertyOp48
 70
     0
102
RTVSPropertyOp49
 70
     0
102
RTVSPropertyOp50
 70
     0
102
RTVSPropertyOp51
 70
     0
102
RTVSPropertyOp52
 70
     0
102
RTVSPropertyOp53
 70
     0
102
RTVSPropertyOp54
 70
     0
102
RTVSPropertyOp55
 70
     0
102
RTVSPropertyOp56
 70
     0
102
RTVSPropertyOp57
 70
     0
102
RTVSPost2010Prop28
280
     0
102
RTVSPost2010PropOp28
 70
     0
102
RTVSPost2010Prop29
280
     1
102
RTVSPost2010PropOp29
 70
     0
102
RTVSPost2010Prop30
280
     1
102
RTVSPost2010PropOp30
 70
     0
102
RTVSPost2010Prop31
280
     0
102
RTVSPost2010PropOp31
 70
     0
102
RTVSPost2010Prop32
280
     0
102
RTVSPost2010PropOp32
 70
     0
102
RTVSPost2010Prop33
280
     0
102
RTVSPost2010PropOp33
 70
     0
102
RTVSPost2010Prop34
280
     0
102
RTVSPost2010PropOp34
 70
     0
102
RTVSPost2010Prop35
280
     0
102
RTVSPost2010PropOp35
 70
     0
102
RTVSPost2010Prop36
280
     0
102
RTVSPost2010PropOp36
 70
     0
102
RTVSPost2010Prop37
 90
       50
102
RTVSPost2010PropOp37
 70
     0
102
RTVSPost2010Prop38
140
0.0
102
RTVSPost2010PropOp38
 70
     0
102
RTVSPost2010Prop39
140
1.0
102
RTVSPost2010PropOp39
 70
     0
102
RTVSPost2010Prop40
 90
        0
102
RTVSPost2010PropOp40
 70
     0
102
RTVSPost2010Prop41ColorIndex
 90
       18
102
RTVSPost2010Prop41ColorRGB
 90
        0
102
RTVSPost2010PropOp41
 70
     0
102
RTVSPost2010Prop42
 90
       50
102
RTVSPost2010PropOp42
 70
     0
102
RTVSPost2010Prop43
 90
        3
102
RTVSPost2010PropOp43
 70
     0
102
RTVSPost2010Prop44ColorIndex
 90
        5
102
RTVSPost2010Prop44ColorRGB
 90
      255
102
RTVSPost2010PropOp44
 70
     0
102
RTVSPost2010Prop45
280
     0
102
RTVSPost2010PropOp45
 70
     0
102
RTVSPost2010Prop46
 90
       50
102
RTVSPost2010PropOp46
 70
     0
102
RTVSPost2010Prop47
 90
       50
102
RTVSPost2010PropOp47
 70
     0
102
RTVSPost2010Prop48
 90
       50
102
RTVSPost2010PropOp48
 70
     0
102
RTVSPost2010Prop49
280
     0
102
RTVSPost2010PropOp49
 70
     0
102
RTVSPost2010Prop50
 90
       50
102
RTVSPost2010PropOp50
 70
     0
102
RTVSPost2010Prop51ColorIndex
 90
      256
102
RTVSPost2010Prop51ColorRGB
 90
-16777216
102
RTVSPost2010PropOp51
 70
     0
102
RTVSPost2010Prop52
140
1.0
102
RTVSPost2010PropOp52
 70
     0
102
RTVSPost2010Prop53
 90
        2
102
RTVSPost2010PropOp53
 70
     0
102
RTVSPost2010Prop54
  1
strokes_ogs.tif
102
RTVSPost2010PropOp54
 70
     0
102
RTVSPost2010Prop55
280
     0
102
RTVSPost2010PropOp55
 70
     0
102
RTVSPost2010Prop56
140
1.0
102
RTVSPost2010PropOp56
 70
     0
102
RTVSPost2010Prop57
140
1.0
102
RTVSPost2010PropOp57
 70
     0
  0
XRECORD
  5
220
102
{ACAD_REACTORS
330
21F
102
}
330
21F
100
AcDbXrecord
280
     1
102
RTVSPropertyOp0
 70
     1
102
RTVSPropertyOp1
 70
     1
102
RTVSPropertyOp2
 70
     1
102
RTVSPropertyOp3
 70
     1
102
RTVSPropertyOp4
 70
     1
102
RTVSPropertyOp5
 70
     1
102
RTVSPropertyOp6
 70
     1
102
RTVSPropertyOp7
 70
     1
102
RTVSPropertyOp8
 70
     1
102
RTVSPropertyOp9
 70
     1
102
RTVSPropertyOp10
 70
     1
102
RTVSPropertyOp11
 70
     1
102
RTVSPropertyOp12
 70
     1
102
RTVSPropertyOp13
 70
     1
102
RTVSPropertyOp14
 70
     1
102
RTVSPropertyOp15
 70
     1
102
RTVSPropertyOp16
 70
     1
102
RTVSPropertyOp17
 70
     1
102
RTVSPropertyOp18
 70
     1
102
RTVSPropertyOp19
 70
     1
102
RTVSPropertyOp20
 70
     1
102
RTVSPropertyOp21
 70
     1
102
RTVSPropertyOp22
 70
     1
102
RTVSPropertyOp23
 70
     1
102
RTVSPropertyOp24
 70
     1
102
RTVSPropertyOp25
 70
     1
102
RTVSPropertyOp26
 70
     1
102
RTVSPropertyOp27
 70
     1
102
RTVSPropertyOp28
 70
     1
102
RTVSPropertyOp29
 70
     1
102
RTVSPropertyOp30
 70
     1
102
RTVSPropertyOp31
 70
     1
102
RTVSPropertyOp32
 70
     1
102
RTVSPropertyOp33
 70
     1
102
RTVSPropertyOp34
 70
     1
102
RTVSPropertyOp35
 70
     1
102
RTVSPropertyOp36
 70
     1
102
RTVSPropertyOp37
 70
     1
102
RTVSPropertyOp38
 70
     1
102
RTVSPropertyOp39
 70
     1
102
RTVSPropertyOp40
 70
     1
102
RTVSPropertyOp41
 70
     1
102
RTVSPropertyOp42
 70
     1
102
RTVSPropertyOp43
 70
     1
102
RTVSPropertyOp44
 70
     1
102
RTVSPropertyOp45
 70
     1
102
RTVSPropertyOp46
 70
     1
102
RTVSPropertyOp47
 70
     1
102
RTVSPropertyOp48
 70
     1
102
RTVSPropertyOp49
 70
     1
102
RTVSPropertyOp50
 70
     1
102
RTVSPropertyOp51
 70
     0
102
RTVSPropertyOp52
 70
     0
102
RTVSPropertyOp53
 70
     1
102
RTVSPropertyOp54
 70
     1
102
RTVSPropertyOp55
 70
     1
102
RTVSPropertyOp56
 70
     1
102
RTVSPropertyOp57
 70
     1
102
RTVSPost2010Prop28
280
     0
102
RTVSPost2010PropOp28
 70
     1
102
RTVSPost2010Prop29
280
     1
102
RTVSPost2010PropOp29
 70
     1
102
RTVSPost2010Prop30
280
     1
102
RTVSPost2010PropOp30
 70
     1
102
RTVSPost2010Prop31
280
     0
102
RTVSPost2010PropOp31
 70
     1
102
RTVSPost2010Prop32
280
     0
102
RTVSPost2010PropOp32
 70
     1
102
RTVSPost2010Prop33
280
     0
102
RTVSPost2010PropOp33
 70
     1
102
RTVSPost2010Prop34
280
     0
102
RTVSPost2010PropOp34
 70
     1
102
RTVSPost2010Prop35
280
     0
102
RTVSPost2010PropOp35
 70
     1
102
RTVSPost2010Prop36
280
     0
102
RTVSPost2010PropOp36
 70
     1
102
RTVSPost2010Prop37
 90
       50
102
RTVSPost2010PropOp37
 70
     1
102
RTVSPost2010Prop38
140
0.0
102
RTVSPost2010PropOp38
 70
     1
102
RTVSPost2010Prop39
140
1.0
102
RTVSPost2010PropOp39
 70
     1
102
RTVSPost2010Prop40
 90
        0
102
RTVSPost2010PropOp40
 70
     1
102
RTVSPost2010Prop41ColorIndex
 90
       18
102
RTVSPost2010Prop41ColorRGB
 90
        0
102
RTVSPost2010PropOp41
 70
     1
102
RTVSPost2010Prop42
 90
       50
102
RTVSPost2010PropOp42
 70
     1
102
RTVSPost2010Prop43
 90
        3
102
RTVSPost2010PropOp43
 70
     1
102
RTVSPost2010Prop44ColorIndex
 90
        5
102
RTVSPost2010Prop44ColorRGB
 90
      255
102
RTVSPost2010PropOp44
 70
     1
102
RTVSPost2010Prop45
280
     0
102
RTVSPost2010PropOp45
 70
     1
102
RTVSPost2010Prop46
 90
       50
102
RTVSPost2010PropOp46
 70
     1
102
RTVSPost2010Prop47
 90
       50
102
RTVSPost2010PropOp47
 70
     1
102
RTVSPost2010Prop48
 90
       50
102
RTVSPost2010PropOp48
 70
     1
102
RTVSPost2010Prop49
280
     0
102
RTVSPost2010PropOp49
 70
     1
102
RTVSPost2010Prop50
 90
       50
102
RTVSPost2010PropOp50
 70
     1
102
RTVSPost2010Prop51ColorIndex
 90
      256
102
RTVSPost2010Prop51ColorRGB
 90
-16777216
102
RTVSPost2010PropOp51
 70
     0
102
RTVSPost2010Prop52
140
1.0
102
RTVSPost2010PropOp52
 70
     0
102
RTVSPost2010Prop53
 90
        2
102
RTVSPost2010PropOp53
 70
     1
102
RTVSPost2010Prop54
  1
strokes_ogs.tif
102
RTVSPost2010PropOp54
 70
     1
102
RTVSPost2010Prop55
280
     0
102
RTVSPost2010PropOp55
 70
     1
102
RTVSPost2010Prop56
140
1.0
102
RTVSPost2010PropOp56
 70
     1
102
RTVSPost2010Prop57
140
1.0
102
RTVSPost2010PropOp57
 70
     1
  0
XRECORD
  5
228
102
{ACAD_REACTORS
330
227
102
}
330
227
100
AcDbXrecord
280
     1
102
RTVSPropertyOp0
 70
     0
102
RTVSPropertyOp1
 70
     0
102
RTVSPropertyOp2
 70
     0
102
RTVSPropertyOp3
 70
     0
102
RTVSPropertyOp4
 70
     0
102
RTVSPropertyOp5
 70
     0
102
RTVSPropertyOp6
 70
     0
102
RTVSPropertyOp7
 70
     0
102
RTVSPropertyOp8
 70
     0
102
RTVSPropertyOp9
 70
     0
102
RTVSPropertyOp10
 70
     0
102
RTVSPropertyOp11
 70
     0
102
RTVSPropertyOp12
 70
     0
102
RTVSPropertyOp13
 70
     0
102
RTVSPropertyOp14
 70
     2
102
RTVSPropertyOp15
 70
     0
102
RTVSPropertyOp16
 70
     0
102
RTVSPropertyOp17
 70
     0
102
RTVSPropertyOp18
 70
     0
102
RTVSPropertyOp19
 70
     0
102
RTVSPropertyOp20
 70
     0
102
RTVSPropertyOp21
 70
     0
102
RTVSPropertyOp22
 70
     0
102
RTVSPropertyOp23
 70
     0
102
RTVSPropertyOp24
 70
     0
102
RTVSPropertyOp25
 70
     0
102
RTVSPropertyOp26
 70
     0
102
RTVSPropertyOp27
 70
     0
102
RTVSPropertyOp28
 70
     0
102
RTVSPropertyOp29
 70
     0
102
RTVSPropertyOp30
 70
     0
102
RTVSPropertyOp31
 70
     0
102
RTVSPropertyOp32
 70
     0
102
RTVSPropertyOp33
 70
     0
102
RTVSPropertyOp34
 70
     0
102
RTVSPropertyOp35
 70
     0
102
RTVSPropertyOp36
 70
     0
102
RTVSPropertyOp37
 70
     0
102
RTVSPropertyOp38
 70
     0
102
RTVSPropertyOp39
 70
     0
102
RTVSPropertyOp40
 70
     0
102
RTVSPropertyOp41
 70
     0
102
RTVSPropertyOp42
 70
     0
102
RTVSPropertyOp43
 70
     0
102
RTVSPropertyOp44
 70
     0
102
RTVSPropertyOp45
 70
     0
102
RTVSPropertyOp46
 70
     0
102
RTVSPropertyOp47
 70
     0
102
RTVSPropertyOp48
 70
     0
102
RTVSPropertyOp49
 70
     0
102
RTVSPropertyOp50
 70
     0
102
RTVSPropertyOp51
 70
     0
102
RTVSPropertyOp52
 70
     0
102
RTVSPropertyOp53
 70
     0
102
RTVSPropertyOp54
 70
     0
102
RTVSPropertyOp55
 70
     0
102
RTVSPropertyOp56
 70
     0
102
RTVSPropertyOp57
 70
     0
102
RTVSPost2010Prop28
280
     0
102
RTVSPost2010PropOp28
 70
     0
102
RTVSPost2010Prop29
280
     1
102
RTVSPost2010PropOp29
 70
     0
102
RTVSPost2010Prop30
280
     1
102
RTVSPost2010PropOp30
 70
     0
102
RTVSPost2010Prop31
280
     0
102
RTVSPost2010PropOp31
 70
     0
102
RTVSPost2010Prop32
280
     0
102
RTVSPost2010PropOp32
 70
     0
102
RTVSPost2010Prop33
280
     0
102
RTVSPost2010PropOp33
 70
     0
102
RTVSPost2010Prop34
280
     0
102
RTVSPost2010PropOp34
 70
     0
102
RTVSPost2010Prop35
280
     0
102
RTVSPost2010PropOp35
 70
     0
102
RTVSPost2010Prop36
280
     0
102
RTVSPost2010PropOp36
 70
     0
102
RTVSPost2010Prop37
 90
       50
102
RTVSPost2010PropOp37
 70
     0
102
RTVSPost2010Prop38
140
0.0
102
RTVSPost2010PropOp38
 70
     0
102
RTVSPost2010Prop39
140
1.0
102
RTVSPost2010PropOp39
 70
     0
102
RTVSPost2010Prop40
 90
        0
102
RTVSPost2010PropOp40
 70
     0
102
RTVSPost2010Prop41ColorIndex
 90
       18
102
RTVSPost2010Prop41ColorRGB
 90
        0
102
RTVSPost2010PropOp41
 70
     0
102
RTVSPost2010Prop42
 90
       50
102
RTVSPost2010PropOp42
 70
     0
102
RTVSPost2010Prop43
 90
        3
102
RTVSPost2010PropOp43
 70
     0
102
RTVSPost2010Prop44ColorIndex
 90
        5
102
RTVSPost2010Prop44ColorRGB
 90
      255
102
RTVSPost2010PropOp44
 70
     0
102
RTVSPost2010Prop45
280
     0
102
RTVSPost2010PropOp45
 70
     0
102
RTVSPost2010Prop46
 90
       50
102
RTVSPost2010PropOp46
 70
     0
102
RTVSPost2010Prop47
 90
       50
102
RTVSPost2010PropOp47
 70
     0
102
RTVSPost2010Prop48
 90
       50
102
RTVSPost2010PropOp48
 70
     0
102
RTVSPost2010Prop49
280
     0
102
RTVSPost2010PropOp49
 70
     0
102
RTVSPost2010Prop50
 90
       50
102
RTVSPost2010PropOp50
 70
     0
102
RTVSPost2010Prop51ColorIndex
 90
      256
102
RTVSPost2010Prop51ColorRGB
 90
-16777216
102
RTVSPost2010PropOp51
 70
     0
102
RTVSPost2010Prop52
140
1.0
102
RTVSPost2010PropOp52
 70
     0
102
RTVSPost2010Prop53
 90
        2
102
RTVSPost2010PropOp53
 70
     0
102
RTVSPost2010Prop54
  1
strokes_ogs.tif
102
RTVSPost2010PropOp54
 70
     0
102
RTVSPost2010Prop55
280
     0
102
RTVSPost2010PropOp55
 70
     0
102
RTVSPost2010Prop56
140
1.0
102
RTVSPost2010PropOp56
 70
     0
102
RTVSPost2010Prop57
140
1.0
102
RTVSPost2010PropOp57
 70
     0
  0
XRECORD
  5
216
102
{ACAD_REACTORS
330
215
102
}
330
215
100
AcDbXrecord
280
     1
102
RTVSPropertyOp0
 70
     1
102
RTVSPropertyOp1
 70
     1
102
RTVSPropertyOp2
 70
     1
102
RTVSPropertyOp3
 70
     1
102
RTVSPropertyOp4
 70
     1
102
RTVSPropertyOp5
 70
     1
102
RTVSPropertyOp6
 70
     1
102
RTVSPropertyOp7
 70
     1
102
RTVSPropertyOp8
 70
     1
102
RTVSPropertyOp9
 70
     1
102
RTVSPropertyOp10
 70
     1
102
RTVSPropertyOp11
 70
     1
102
RTVSPropertyOp12
 70
     1
102
RTVSPropertyOp13
 70
     1
102
RTVSPropertyOp14
 70
     1
102
RTVSPropertyOp15
 70
     1
102
RTVSPropertyOp16
 70
     1
102
RTVSPropertyOp17
 70
     1
102
RTVSPropertyOp18
 70
     1
102
RTVSPropertyOp19
 70
     1
102
RTVSPropertyOp20
 70
     1
102
RTVSPropertyOp21
 70
     1
102
RTVSPropertyOp22
 70
     1
102
RTVSPropertyOp23
 70
     1
102
RTVSPropertyOp24
 70
     1
102
RTVSPropertyOp25
 70
     1
102
RTVSPropertyOp26
 70
     1
102
RTVSPropertyOp27
 70
     1
102
RTVSPropertyOp28
 70
     1
102
RTVSPropertyOp29
 70
     1
102
RTVSPropertyOp30
 70
     1
102
RTVSPropertyOp31
 70
     1
102
RTVSPropertyOp32
 70
     1
102
RTVSPropertyOp33
 70
     1
102
RTVSPropertyOp34
 70
     1
102
RTVSPropertyOp35
 70
     1
102
RTVSPropertyOp36
 70
     1
102
RTVSPropertyOp37
 70
     1
102
RTVSPropertyOp38
 70
     1
102
RTVSPropertyOp39
 70
     1
102
RTVSPropertyOp40
 70
     1
102
RTVSPropertyOp41
 70
     1
102
RTVSPropertyOp42
 70
     1
102
RTVSPropertyOp43
 70
     1
102
RTVSPropertyOp44
 70
     1
102
RTVSPropertyOp45
 70
     1
102
RTVSPropertyOp46
 70
     1
102
RTVSPropertyOp47
 70
     1
102
RTVSPropertyOp48
 70
     1
102
RTVSPropertyOp49
 70
     1
102
RTVSPropertyOp50
 70
     1
102
RTVSPropertyOp51
 70
     0
102
RTVSPropertyOp52
 70
     0
102
RTVSPropertyOp53
 70
     1
102
RTVSPropertyOp54
 70
     1
102
RTVSPropertyOp55
 70
     1
102
RTVSPropertyOp56
 70
     1
102
RTVSPropertyOp57
 70
     1
102
RTVSPost2010Prop28
280
     0
102
RTVSPost2010PropOp28
 70
     1
102
RTVSPost2010Prop29
280
     1
102
RTVSPost2010PropOp29
 70
     1
102
RTVSPost2010Prop30
280
     1
102
RTVSPost2010PropOp30
 70
     1
102
RTVSPost2010Prop31
280
     0
102
RTVSPost2010PropOp31
 70
     1
102
RTVSPost2010Prop32
280
     0
102
RTVSPost2010PropOp32
 70
     1
102
RTVSPost2010Prop33
280
     0
102
RTVSPost2010PropOp33
 70
     1
102
RTVSPost2010Prop34
280
     0
102
RTVSPost2010PropOp34
 70
     1
102
RTVSPost2010Prop35
280
     0
102
RTVSPost2010PropOp35
 70
     1
102
RTVSPost2010Prop36
280
     0
102
RTVSPost2010PropOp36
 70
     1
102
RTVSPost2010Prop37
 90
       50
102
RTVSPost2010PropOp37
 70
     1
102
RTVSPost2010Prop38
140
0.0
102
RTVSPost2010PropOp38
 70
     1
102
RTVSPost2010Prop39
140
1.0
102
RTVSPost2010PropOp39
 70
     1
102
RTVSPost2010Prop40
 90
        0
102
RTVSPost2010PropOp40
 70
     1
102
RTVSPost2010Prop41ColorIndex
 90
       18
102
RTVSPost2010Prop41ColorRGB
 90
        0
102
RTVSPost2010PropOp41
 70
     1
102
RTVSPost2010Prop42
 90
       50
102
RTVSPost2010PropOp42
 70
     1
102
RTVSPost2010Prop43
 90
        3
102
RTVSPost2010PropOp43
 70
     1
102
RTVSPost2010Prop44ColorIndex
 90
        5
102
RTVSPost2010Prop44ColorRGB
 90
      255
102
RTVSPost2010PropOp44
 70
     1
102
RTVSPost2010Prop45
280
     0
102
RTVSPost2010PropOp45
 70
     1
102
RTVSPost2010Prop46
 90
       50
102
RTVSPost2010PropOp46
 70
     1
102
RTVSPost2010Prop47
 90
       50
102
RTVSPost2010PropOp47
 70
     1
102
RTVSPost2010Prop48
 90
       50
102
RTVSPost2010PropOp48
 70
     1
102
RTVSPost2010Prop49
280
     0
102
RTVSPost2010PropOp49
 70
     1
102
RTVSPost2010Prop50
 90
       50
102
RTVSPost2010PropOp50
 70
     1
102
RTVSPost2010Prop51ColorIndex
 90
      256
102
RTVSPost2010Prop51ColorRGB
 90
-16777216
102
RTVSPost2010PropOp51
 70
     0
102
RTVSPost2010Prop52
140
1.0
102
RTVSPost2010PropOp52
 70
     0
102
RTVSPost2010Prop53
 90
        2
102
RTVSPost2010PropOp53
 70
     1
102
RTVSPost2010Prop54
  1
strokes_ogs.tif
102
RTVSPost2010PropOp54
 70
     1
102
RTVSPost2010Prop55
280
     0
102
RTVSPost2010PropOp55
 70
     1
102
RTVSPost2010Prop56
140
1.0
102
RTVSPost2010PropOp56
 70
     1
102
RTVSPost2010Prop57
140
1.0
102
RTVSPost2010PropOp57
 70
     1
  0
XRECORD
  5
234
102
{ACAD_REACTORS
330
233
102
}
330
233
100
AcDbXrecord
280
     1
102
RTVSPropertyOp0
 70
     1
102
RTVSPropertyOp1
 70
     1
102
RTVSPropertyOp2
 70
     1
102
RTVSPropertyOp3
 70
     1
102
RTVSPropertyOp4
 70
     1
102
RTVSPropertyOp5
 70
     1
102
RTVSPropertyOp6
 70
     1
102
RTVSPropertyOp7
 70
     1
102
RTVSPropertyOp8
 70
     1
102
RTVSPropertyOp9
 70
     1
102
RTVSPropertyOp10
 70
     1
102
RTVSPropertyOp11
 70
     1
102
RTVSPropertyOp12
 70
     1
102
RTVSPropertyOp13
 70
     1
102
RTVSPropertyOp14
 70
     1
102
RTVSPropertyOp15
 70
     1
102
RTVSPropertyOp16
 70
     1
102
RTVSPropertyOp17
 70
     1
102
RTVSPropertyOp18
 70
     1
102
RTVSPropertyOp19
 70
     1
102
RTVSPropertyOp20
 70
     1
102
RTVSPropertyOp21
 70
     1
102
RTVSPropertyOp22
 70
     1
102
RTVSPropertyOp23
 70
     1
102
RTVSPropertyOp24
 70
     1
102
RTVSPropertyOp25
 70
     1
102
RTVSPropertyOp26
 70
     1
102
RTVSPropertyOp27
 70
     1
102
RTVSPropertyOp28
 70
     1
102
RTVSPropertyOp29
 70
     1
102
RTVSPropertyOp30
 70
     1
102
RTVSPropertyOp31
 70
     1
102
RTVSPropertyOp32
 70
     1
102
RTVSPropertyOp33
 70
     1
102
RTVSPropertyOp34
 70
     1
102
RTVSPropertyOp35
 70
     1
102
RTVSPropertyOp36
 70
     1
102
RTVSPropertyOp37
 70
     1
102
RTVSPropertyOp38
 70
     1
102
RTVSPropertyOp39
 70
     1
102
RTVSPropertyOp40
 70
     1
102
RTVSPropertyOp41
 70
     1
102
RTVSPropertyOp42
 70
     1
102
RTVSPropertyOp43
 70
     1
102
RTVSPropertyOp44
 70
     1
102
RTVSPropertyOp45
 70
     1
102
RTVSPropertyOp46
 70
     1
102
RTVSPropertyOp47
 70
     1
102
RTVSPropertyOp48
 70
     1
102
RTVSPropertyOp49
 70
     1
102
RTVSPropertyOp50
 70
     1
102
RTVSPropertyOp51
 70
     0
102
RTVSPropertyOp52
 70
     0
102
RTVSPropertyOp53
 70
     1
102
RTVSPropertyOp54
 70
     1
102
RTVSPropertyOp55
 70
     1
102
RTVSPropertyOp56
 70
     1
102
RTVSPropertyOp57
 70
     1
102
RTVSPost2010Prop28
280
     0
102
RTVSPost2010PropOp28
 70
     1
102
RTVSPost2010Prop29
280
     1
102
RTVSPost2010PropOp29
 70
     1
102
RTVSPost2010Prop30
280
     1
102
RTVSPost2010PropOp30
 70
     1
102
RTVSPost2010Prop31
280
     0
102
RTVSPost2010PropOp31
 70
     1
102
RTVSPost2010Prop32
280
     0
102
RTVSPost2010PropOp32
 70
     1
102
RTVSPost2010Prop33
280
     0
102
RTVSPost2010PropOp33
 70
     1
102
RTVSPost2010Prop34
280
     0
102
RTVSPost2010PropOp34
 70
     1
102
RTVSPost2010Prop35
280
     0
102
RTVSPost2010PropOp35
 70
     1
102
RTVSPost2010Prop36
280
     0
102
RTVSPost2010PropOp36
 70
     1
102
RTVSPost2010Prop37
 90
       50
102
RTVSPost2010PropOp37
 70
     1
102
RTVSPost2010Prop38
140
0.0
102
RTVSPost2010PropOp38
 70
     1
102
RTVSPost2010Prop39
140
1.0
102
RTVSPost2010PropOp39
 70
     1
102
RTVSPost2010Prop40
 90
        0
102
RTVSPost2010PropOp40
 70
     1
102
RTVSPost2010Prop41ColorIndex
 90
       18
102
RTVSPost2010Prop41ColorRGB
 90
        0
102
RTVSPost2010PropOp41
 70
     1
102
RTVSPost2010Prop42
 90
       50
102
RTVSPost2010PropOp42
 70
     1
102
RTVSPost2010Prop43
 90
        3
102
RTVSPost2010PropOp43
 70
     1
102
RTVSPost2010Prop44ColorIndex
 90
        5
102
RTVSPost2010Prop44ColorRGB
 90
      255
102
RTVSPost2010PropOp44
 70
     1
102
RTVSPost2010Prop45
280
     0
102
RTVSPost2010PropOp45
 70
     1
102
RTVSPost2010Prop46
 90
       50
102
RTVSPost2010PropOp46
 70
     1
102
RTVSPost2010Prop47
 90
       50
102
RTVSPost2010PropOp47
 70
     1
102
RTVSPost2010Prop48
 90
       50
102
RTVSPost2010PropOp48
 70
     1
102
RTVSPost2010Prop49
280
     0
102
RTVSPost2010PropOp49
 70
     1
102
RTVSPost2010Prop50
 90
       50
102
RTVSPost2010PropOp50
 70
     1
102
RTVSPost2010Prop51ColorIndex
 90
      256
102
RTVSPost2010Prop51ColorRGB
 90
-16777216
102
RTVSPost2010PropOp51
 70
     0
102
RTVSPost2010Prop52
140
1.0
102
RTVSPost2010PropOp52
 70
     0
102
RTVSPost2010Prop53
 90
        2
102
RTVSPost2010PropOp53
 70
     1
102
RTVSPost2010Prop54
  1
strokes_ogs.tif
102
RTVSPost2010PropOp54
 70
     1
102
RTVSPost2010Prop55
280
     0
102
RTVSPost2010PropOp55
 70
     1
102
RTVSPost2010Prop56
140
1.0
102
RTVSPost2010PropOp56
 70
     1
102
RTVSPost2010Prop57
140
1.0
102
RTVSPost2010PropOp57
 70
     1
  0
XRECORD
  5
232
102
{ACAD_REACTORS
330
231
102
}
330
231
100
AcDbXrecord
280
     1
102
RTVSPropertyOp0
 70
     1
102
RTVSPropertyOp1
 70
     1
102
RTVSPropertyOp2
 70
     1
102
RTVSPropertyOp3
 70
     1
102
RTVSPropertyOp4
 70
     1
102
RTVSPropertyOp5
 70
     1
102
RTVSPropertyOp6
 70
     1
102
RTVSPropertyOp7
 70
     1
102
RTVSPropertyOp8
 70
     1
102
RTVSPropertyOp9
 70
     1
102
RTVSPropertyOp10
 70
     1
102
RTVSPropertyOp11
 70
     1
102
RTVSPropertyOp12
 70
     1
102
RTVSPropertyOp13
 70
     1
102
RTVSPropertyOp14
 70
     1
102
RTVSPropertyOp15
 70
     1
102
RTVSPropertyOp16
 70
     1
102
RTVSPropertyOp17
 70
     1
102
RTVSPropertyOp18
 70
     1
102
RTVSPropertyOp19
 70
     1
102
RTVSPropertyOp20
 70
     1
102
RTVSPropertyOp21
 70
     1
102
RTVSPropertyOp22
 70
     1
102
RTVSPropertyOp23
 70
     1
102
RTVSPropertyOp24
 70
     1
102
RTVSPropertyOp25
 70
     1
102
RTVSPropertyOp26
 70
     1
102
RTVSPropertyOp27
 70
     1
102
RTVSPropertyOp28
 70
     1
102
RTVSPropertyOp29
 70
     1
102
RTVSPropertyOp30
 70
     1
102
RTVSPropertyOp31
 70
     1
102
RTVSPropertyOp32
 70
     1
102
RTVSPropertyOp33
 70
     1
102
RTVSPropertyOp34
 70
     1
102
RTVSPropertyOp35
 70
     1
102
RTVSPropertyOp36
 70
     1
102
RTVSPropertyOp37
 70
     1
102
RTVSPropertyOp38
 70
     1
102
RTVSPropertyOp39
 70
     1
102
RTVSPropertyOp40
 70
     1
102
RTVSPropertyOp41
 70
     1
102
RTVSPropertyOp42
 70
     1
102
RTVSPropertyOp43
 70
     1
102
RTVSPropertyOp44
 70
     1
102
RTVSPropertyOp45
 70
     1
102
RTVSPropertyOp46
 70
     1
102
RTVSPropertyOp47
 70
     1
102
RTVSPropertyOp48
 70
     1
102
RTVSPropertyOp49
 70
     1
102
RTVSPropertyOp50
 70
     1
102
RTVSPropertyOp51
 70
     0
102
RTVSPropertyOp52
 70
     0
102
RTVSPropertyOp53
 70
     1
102
RTVSPropertyOp54
 70
     1
102
RTVSPropertyOp55
 70
     1
102
RTVSPropertyOp56
 70
     1
102
RTVSPropertyOp57
 70
     1
102
RTVSPost2010Prop28
280
     0
102
RTVSPost2010PropOp28
 70
     1
102
RTVSPost2010Prop29
280
     1
102
RTVSPost2010PropOp29
 70
     1
102
RTVSPost2010Prop30
280
     1
102
RTVSPost2010PropOp30
 70
     1
102
RTVSPost2010Prop31
280
     0
102
RTVSPost2010PropOp31
 70
     1
102
RTVSPost2010Prop32
280
     0
102
RTVSPost2010PropOp32
 70
     1
102
RTVSPost2010Prop33
280
     0
102
RTVSPost2010PropOp33
 70
     1
102
RTVSPost2010Prop34
280
     0
102
RTVSPost2010PropOp34
 70
     1
102
RTVSPost2010Prop35
280
     0
102
RTVSPost2010PropOp35
 70
     1
102
RTVSPost2010Prop36
280
     0
102
RTVSPost2010PropOp36
 70
     1
102
RTVSPost2010Prop37
 90
       50
102
RTVSPost2010PropOp37
 70
     1
102
RTVSPost2010Prop38
140
0.0
102
RTVSPost2010PropOp38
 70
     1
102
RTVSPost2010Prop39
140
1.0
102
RTVSPost2010PropOp39
 70
     1
102
RTVSPost2010Prop40
 90
        0
102
RTVSPost2010PropOp40
 70
     1
102
RTVSPost2010Prop41ColorIndex
 90
       18
102
RTVSPost2010Prop41ColorRGB
 90
        0
102
RTVSPost2010PropOp41
 70
     1
102
RTVSPost2010Prop42
 90
       50
102
RTVSPost2010PropOp42
 70
     1
102
RTVSPost2010Prop43
 90
        3
102
RTVSPost2010PropOp43
 70
     1
102
RTVSPost2010Prop44ColorIndex
 90
        5
102
RTVSPost2010Prop44ColorRGB
 90
      255
102
RTVSPost2010PropOp44
 70
     1
102
RTVSPost2010Prop45
280
     0
102
RTVSPost2010PropOp45
 70
     1
102
RTVSPost2010Prop46
 90
       50
102
RTVSPost2010PropOp46
 70
     1
102
RTVSPost2010Prop47
 90
       50
102
RTVSPost2010PropOp47
 70
     1
102
RTVSPost2010Prop48
 90
       50
102
RTVSPost2010PropOp48
 70
     1
102
RTVSPost2010Prop49
280
     0
102
RTVSPost2010PropOp49
 70
     1
102
RTVSPost2010Prop50
 90
       50
102
RTVSPost2010PropOp50
 70
     1
102
RTVSPost2010Prop51ColorIndex
 90
      256
102
RTVSPost2010Prop51ColorRGB
 90
-16777216
102
RTVSPost2010PropOp51
 70
     0
102
RTVSPost2010Prop52
140
1.0
102
RTVSPost2010PropOp52
 70
     0
102
RTVSPost2010Prop53
 90
        2
102
RTVSPost2010PropOp53
 70
     1
102
RTVSPost2010Prop54
  1
strokes_ogs.tif
102
RTVSPost2010PropOp54
 70
     1
102
RTVSPost2010Prop55
280
     0
102
RTVSPost2010PropOp55
 70
     1
102
RTVSPost2010Prop56
140
1.0
102
RTVSPost2010PropOp56
 70
     1
102
RTVSPost2010Prop57
140
1.0
102
RTVSPost2010PropOp57
 70
     1
  0
XRECORD
  5
22C
102
{ACAD_REACTORS
330
22B
102
}
330
22B
100
AcDbXrecord
280
     1
102
RTVSPropertyOp0
 70
     1
102
RTVSPropertyOp1
 70
     1
102
RTVSPropertyOp2
 70
     1
102
RTVSPropertyOp3
 70
     1
102
RTVSPropertyOp4
 70
     1
102
RTVSPropertyOp5
 70
     1
102
RTVSPropertyOp6
 70
     1
102
RTVSPropertyOp7
 70
     1
102
RTVSPropertyOp8
 70
     1
102
RTVSPropertyOp9
 70
     1
102
RTVSPropertyOp10
 70
     1
102
RTVSPropertyOp11
 70
     1
102
RTVSPropertyOp12
 70
     1
102
RTVSPropertyOp13
 70
     1
102
RTVSPropertyOp14
 70
     1
102
RTVSPropertyOp15
 70
     1
102
RTVSPropertyOp16
 70
     1
102
RTVSPropertyOp17
 70
     1
102
RTVSPropertyOp18
 70
     1
102
RTVSPropertyOp19
 70
     1
102
RTVSPropertyOp20
 70
     1
102
RTVSPropertyOp21
 70
     1
102
RTVSPropertyOp22
 70
     1
102
RTVSPropertyOp23
 70
     1
102
RTVSPropertyOp24
 70
     1
102
RTVSPropertyOp25
 70
     1
102
RTVSPropertyOp26
 70
     1
102
RTVSPropertyOp27
 70
     1
102
RTVSPropertyOp28
 70
     1
102
RTVSPropertyOp29
 70
     1
102
RTVSPropertyOp30
 70
     1
102
RTVSPropertyOp31
 70
     1
102
RTVSPropertyOp32
 70
     1
102
RTVSPropertyOp33
 70
     1
102
RTVSPropertyOp34
 70
     1
102
RTVSPropertyOp35
 70
     1
102
RTVSPropertyOp36
 70
     1
102
RTVSPropertyOp37
 70
     1
102
RTVSPropertyOp38
 70
     1
102
RTVSPropertyOp39
 70
     1
102
RTVSPropertyOp40
 70
     1
102
RTVSPropertyOp41
 70
     1
102
RTVSPropertyOp42
 70
     1
102
RTVSPropertyOp43
 70
     1
102
RTVSPropertyOp44
 70
     1
102
RTVSPropertyOp45
 70
     1
102
RTVSPropertyOp46
 70
     1
102
RTVSPropertyOp47
 70
     1
102
RTVSPropertyOp48
 70
     1
102
RTVSPropertyOp49
 70
     1
102
RTVSPropertyOp50
 70
     1
102
RTVSPropertyOp51
 70
     0
102
RTVSPropertyOp52
 70
     0
102
RTVSPropertyOp53
 70
     1
102
RTVSPropertyOp54
 70
     1
102
RTVSPropertyOp55
 70
     1
102
RTVSPropertyOp56
 70
     1
102
RTVSPropertyOp57
 70
     1
102
RTVSPost2010Prop28
280
     0
102
RTVSPost2010PropOp28
 70
     1
102
RTVSPost2010Prop29
280
     1
102
RTVSPost2010PropOp29
 70
     1
102
RTVSPost2010Prop30
280
     1
102
RTVSPost2010PropOp30
 70
     1
102
RTVSPost2010Prop31
280
     0
102
RTVSPost2010PropOp31
 70
     1
102
RTVSPost2010Prop32
280
     0
102
RTVSPost2010PropOp32
 70
     1
102
RTVSPost2010Prop33
280
     0
102
RTVSPost2010PropOp33
 70
     1
102
RTVSPost2010Prop34
280
     0
102
RTVSPost2010PropOp34
 70
     1
102
RTVSPost2010Prop35
280
     0
102
RTVSPost2010PropOp35
 70
     1
102
RTVSPost2010Prop36
280
     0
102
RTVSPost2010PropOp36
 70
     1
102
RTVSPost2010Prop37
 90
       50
102
RTVSPost2010PropOp37
 70
     1
102
RTVSPost2010Prop38
140
0.0
102
RTVSPost2010PropOp38
 70
     1
102
RTVSPost2010Prop39
140
1.0
102
RTVSPost2010PropOp39
 70
     1
102
RTVSPost2010Prop40
 90
        0
102
RTVSPost2010PropOp40
 70
     1
102
RTVSPost2010Prop41ColorIndex
 90
       18
102
RTVSPost2010Prop41ColorRGB
 90
        0
102
RTVSPost2010PropOp41
 70
     1
102
RTVSPost2010Prop42
 90
       50
102
RTVSPost2010PropOp42
 70
     1
102
RTVSPost2010Prop43
 90
        3
102
RTVSPost2010PropOp43
 70
     1
102
RTVSPost2010Prop44ColorIndex
 90
        5
102
RTVSPost2010Prop44ColorRGB
 90
      255
102
RTVSPost2010PropOp44
 70
     1
102
RTVSPost2010Prop45
280
     0
102
RTVSPost2010PropOp45
 70
     1
102
RTVSPost2010Prop46
 90
       50
102
RTVSPost2010PropOp46
 70
     1
102
RTVSPost2010Prop47
 90
       50
102
RTVSPost2010PropOp47
 70
     1
102
RTVSPost2010Prop48
 90
       50
102
RTVSPost2010PropOp48
 70
     1
102
RTVSPost2010Prop49
280
     0
102
RTVSPost2010PropOp49
 70
     1
102
RTVSPost2010Prop50
 90
       50
102
RTVSPost2010PropOp50
 70
     1
102
RTVSPost2010Prop51ColorIndex
 90
      256
102
RTVSPost2010Prop51ColorRGB
 90
-16777216
102
RTVSPost2010PropOp51
 70
     0
102
RTVSPost2010Prop52
140
1.0
102
RTVSPost2010PropOp52
 70
     0
102
RTVSPost2010Prop53
 90
        2
102
RTVSPost2010PropOp53
 70
     1
102
RTVSPost2010Prop54
  1
strokes_ogs.tif
102
RTVSPost2010PropOp54
 70
     1
102
RTVSPost2010Prop55
280
     0
102
RTVSPost2010PropOp55
 70
     1
102
RTVSPost2010Prop56
140
1.0
102
RTVSPost2010PropOp56
 70
     1
102
RTVSPost2010Prop57
140
1.0
102
RTVSPost2010PropOp57
 70
     1
  0
XRECORD
  5
22E
102
{ACAD_REACTORS
330
22D
102
}
330
22D
100
AcDbXrecord
280
     1
102
RTVSPropertyOp0
 70
     1
102
RTVSPropertyOp1
 70
     1
102
RTVSPropertyOp2
 70
     1
102
RTVSPropertyOp3
 70
     1
102
RTVSPropertyOp4
 70
     1
102
RTVSPropertyOp5
 70
     1
102
RTVSPropertyOp6
 70
     1
102
RTVSPropertyOp7
 70
     1
102
RTVSPropertyOp8
 70
     1
102
RTVSPropertyOp9
 70
     1
102
RTVSPropertyOp10
 70
     1
102
RTVSPropertyOp11
 70
     1
102
RTVSPropertyOp12
 70
     1
102
RTVSPropertyOp13
 70
     1
102
RTVSPropertyOp14
 70
     1
102
RTVSPropertyOp15
 70
     1
102
RTVSPropertyOp16
 70
     1
102
RTVSPropertyOp17
 70
     1
102
RTVSPropertyOp18
 70
     1
102
RTVSPropertyOp19
 70
     1
102
RTVSPropertyOp20
 70
     1
102
RTVSPropertyOp21
 70
     1
102
RTVSPropertyOp22
 70
     1
102
RTVSPropertyOp23
 70
     1
102
RTVSPropertyOp24
 70
     1
102
RTVSPropertyOp25
 70
     1
102
RTVSPropertyOp26
 70
     1
102
RTVSPropertyOp27
 70
     1
102
RTVSPropertyOp28
 70
     1
102
RTVSPropertyOp29
 70
     1
102
RTVSPropertyOp30
 70
     1
102
RTVSPropertyOp31
 70
     1
102
RTVSPropertyOp32
 70
     1
102
RTVSPropertyOp33
 70
     1
102
RTVSPropertyOp34
 70
     1
102
RTVSPropertyOp35
 70
     1
102
RTVSPropertyOp36
 70
     1
102
RTVSPropertyOp37
 70
     1
102
RTVSPropertyOp38
 70
     1
102
RTVSPropertyOp39
 70
     1
102
RTVSPropertyOp40
 70
     1
102
RTVSPropertyOp41
 70
     1
102
RTVSPropertyOp42
 70
     1
102
RTVSPropertyOp43
 70
     1
102
RTVSPropertyOp44
 70
     1
102
RTVSPropertyOp45
 70
     1
102
RTVSPropertyOp46
 70
     1
102
RTVSPropertyOp47
 70
     1
102
RTVSPropertyOp48
 70
     1
102
RTVSPropertyOp49
 70
     1
102
RTVSPropertyOp50
 70
     1
102
RTVSPropertyOp51
 70
     0
102
RTVSPropertyOp52
 70
     0
102
RTVSPropertyOp53
 70
     1
102
RTVSPropertyOp54
 70
     1
102
RTVSPropertyOp55
 70
     1
102
RTVSPropertyOp56
 70
     1
102
RTVSPropertyOp57
 70
     1
102
RTVSPost2010Prop28
280
     0
102
RTVSPost2010PropOp28
 70
     1
102
RTVSPost2010Prop29
280
     1
102
RTVSPost2010PropOp29
 70
     1
102
RTVSPost2010Prop30
280
     1
102
RTVSPost2010PropOp30
 70
     1
102
RTVSPost2010Prop31
280
     0
102
RTVSPost2010PropOp31
 70
     1
102
RTVSPost2010Prop32
280
     0
102
RTVSPost2010PropOp32
 70
     1
102
RTVSPost2010Prop33
280
     0
102
RTVSPost2010PropOp33
 70
     1
102
RTVSPost2010Prop34
280
     0
102
RTVSPost2010PropOp34
 70
     1
102
RTVSPost2010Prop35
280
     0
102
RTVSPost2010PropOp35
 70
     1
102
RTVSPost2010Prop36
280
     0
102
RTVSPost2010PropOp36
 70
     1
102
RTVSPost2010Prop37
 90
       50
102
RTVSPost2010PropOp37
 70
     1
102
RTVSPost2010Prop38
140
0.0
102
RTVSPost2010PropOp38
 70
     1
102
RTVSPost2010Prop39
140
1.0
102
RTVSPost2010PropOp39
 70
     1
102
RTVSPost2010Prop40
 90
        0
102
RTVSPost2010PropOp40
 70
     1
102
RTVSPost2010Prop41ColorIndex
 90
       18
102
RTVSPost2010Prop41ColorRGB
 90
        0
102
RTVSPost2010PropOp41
 70
     1
102
RTVSPost2010Prop42
 90
       50
102
RTVSPost2010PropOp42
 70
     1
102
RTVSPost2010Prop43
 90
        3
102
RTVSPost2010PropOp43
 70
     1
102
RTVSPost2010Prop44ColorIndex
 90
        5
102
RTVSPost2010Prop44ColorRGB
 90
      255
102
RTVSPost2010PropOp44
 70
     1
102
RTVSPost2010Prop45
280
     0
102
RTVSPost2010PropOp45
 70
     1
102
RTVSPost2010Prop46
 90
       50
102
RTVSPost2010PropOp46
 70
     1
102
RTVSPost2010Prop47
 90
       50
102
RTVSPost2010PropOp47
 70
     1
102
RTVSPost2010Prop48
 90
       50
102
RTVSPost2010PropOp48
 70
     1
102
RTVSPost2010Prop49
280
     0
102
RTVSPost2010PropOp49
 70
     1
102
RTVSPost2010Prop50
 90
       50
102
RTVSPost2010PropOp50
 70
     1
102
RTVSPost2010Prop51ColorIndex
 90
      256
102
RTVSPost2010Prop51ColorRGB
 90
-16777216
102
RTVSPost2010PropOp51
 70
     0
102
RTVSPost2010Prop52
140
1.0
102
RTVSPost2010PropOp52
 70
     0
102
RTVSPost2010Prop53
 90
        2
102
RTVSPost2010PropOp53
 70
     1
102
RTVSPost2010Prop54
  1
strokes_ogs.tif
102
RTVSPost2010PropOp54
 70
     1
102
RTVSPost2010Prop55
280
     0
102
RTVSPost2010PropOp55
 70
     1
102
RTVSPost2010Prop56
140
1.0
102
RTVSPost2010PropOp56
 70
     1
102
RTVSPost2010Prop57
140
1.0
102
RTVSPost2010PropOp57
 70
     1
  0
XRECORD
  5
21E
102
{ACAD_REACTORS
330
21D
102
}
330
21D
100
AcDbXrecord
280
     1
102
RTVSPropertyOp0
 70
     1
102
RTVSPropertyOp1
 70
     1
102
RTVSPropertyOp2
 70
     1
102
RTVSPropertyOp3
 70
     1
102
RTVSPropertyOp4
 70
     1
102
RTVSPropertyOp5
 70
     1
102
RTVSPropertyOp6
 70
     1
102
RTVSPropertyOp7
 70
     1
102
RTVSPropertyOp8
 70
     1
102
RTVSPropertyOp9
 70
     1
102
RTVSPropertyOp10
 70
     1
102
RTVSPropertyOp11
 70
     1
102
RTVSPropertyOp12
 70
     1
102
RTVSPropertyOp13
 70
     1
102
RTVSPropertyOp14
 70
     1
102
RTVSPropertyOp15
 70
     1
102
RTVSPropertyOp16
 70
     1
102
RTVSPropertyOp17
 70
     1
102
RTVSPropertyOp18
 70
     1
102
RTVSPropertyOp19
 70
     1
102
RTVSPropertyOp20
 70
     1
102
RTVSPropertyOp21
 70
     1
102
RTVSPropertyOp22
 70
     1
102
RTVSPropertyOp23
 70
     1
102
RTVSPropertyOp24
 70
     1
102
RTVSPropertyOp25
 70
     1
102
RTVSPropertyOp26
 70
     1
102
RTVSPropertyOp27
 70
     1
102
RTVSPropertyOp28
 70
     1
102
RTVSPropertyOp29
 70
     1
102
RTVSPropertyOp30
 70
     1
102
RTVSPropertyOp31
 70
     1
102
RTVSPropertyOp32
 70
     1
102
RTVSPropertyOp33
 70
     1
102
RTVSPropertyOp34
 70
     1
102
RTVSPropertyOp35
 70
     1
102
RTVSPropertyOp36
 70
     1
102
RTVSPropertyOp37
 70
     1
102
RTVSPropertyOp38
 70
     1
102
RTVSPropertyOp39
 70
     1
102
RTVSPropertyOp40
 70
     1
102
RTVSPropertyOp41
 70
     1
102
RTVSPropertyOp42
 70
     1
102
RTVSPropertyOp43
 70
     1
102
RTVSPropertyOp44
 70
     1
102
RTVSPropertyOp45
 70
     1
102
RTVSPropertyOp46
 70
     1
102
RTVSPropertyOp47
 70
     1
102
RTVSPropertyOp48
 70
     1
102
RTVSPropertyOp49
 70
     1
102
RTVSPropertyOp50
 70
     1
102
RTVSPropertyOp51
 70
     0
102
RTVSPropertyOp52
 70
     0
102
RTVSPropertyOp53
 70
     1
102
RTVSPropertyOp54
 70
     1
102
RTVSPropertyOp55
 70
     1
102
RTVSPropertyOp56
 70
     1
102
RTVSPropertyOp57
 70
     1
102
RTVSPost2010Prop28
280
     0
102
RTVSPost2010PropOp28
 70
     1
102
RTVSPost2010Prop29
280
     1
102
RTVSPost2010PropOp29
 70
     1
102
RTVSPost2010Prop30
280
     1
102
RTVSPost2010PropOp30
 70
     1
102
RTVSPost2010Prop31
280
     0
102
RTVSPost2010PropOp31
 70
     1
102
RTVSPost2010Prop32
280
     0
102
RTVSPost2010PropOp32
 70
     1
102
RTVSPost2010Prop33
280
     0
102
RTVSPost2010PropOp33
 70
     1
102
RTVSPost2010Prop34
280
     0
102
RTVSPost2010PropOp34
 70
     1
102
RTVSPost2010Prop35
280
     0
102
RTVSPost2010PropOp35
 70
     1
102
RTVSPost2010Prop36
280
     0
102
RTVSPost2010PropOp36
 70
     1
102
RTVSPost2010Prop37
 90
       50
102
RTVSPost2010PropOp37
 70
     1
102
RTVSPost2010Prop38
140
0.0
102
RTVSPost2010PropOp38
 70
     1
102
RTVSPost2010Prop39
140
1.0
102
RTVSPost2010PropOp39
 70
     1
102
RTVSPost2010Prop40
 90
        0
102
RTVSPost2010PropOp40
 70
     1
102
RTVSPost2010Prop41ColorIndex
 90
       18
102
RTVSPost2010Prop41ColorRGB
 90
        0
102
RTVSPost2010PropOp41
 70
     1
102
RTVSPost2010Prop42
 90
       50
102
RTVSPost2010PropOp42
 70
     1
102
RTVSPost2010Prop43
 90
        3
102
RTVSPost2010PropOp43
 70
     1
102
RTVSPost2010Prop44ColorIndex
 90
        5
102
RTVSPost2010Prop44ColorRGB
 90
      255
102
RTVSPost2010PropOp44
 70
     1
102
RTVSPost2010Prop45
280
     0
102
RTVSPost2010PropOp45
 70
     1
102
RTVSPost2010Prop46
 90
       50
102
RTVSPost2010PropOp46
 70
     1
102
RTVSPost2010Prop47
 90
       50
102
RTVSPost2010PropOp47
 70
     1
102
RTVSPost2010Prop48
 90
       50
102
RTVSPost2010PropOp48
 70
     1
102
RTVSPost2010Prop49
280
     0
102
RTVSPost2010PropOp49
 70
     1
102
RTVSPost2010Prop50
 90
       50
102
RTVSPost2010PropOp50
 70
     1
102
RTVSPost2010Prop51ColorIndex
 90
      256
102
RTVSPost2010Prop51ColorRGB
 90
-16777216
102
RTVSPost2010PropOp51
 70
     0
102
RTVSPost2010Prop52
140
1.0
102
RTVSPost2010PropOp52
 70
     0
102
RTVSPost2010Prop53
 90
        2
102
RTVSPost2010PropOp53
 70
     1
102
RTVSPost2010Prop54
  1
strokes_ogs.tif
102
RTVSPost2010PropOp54
 70
     1
102
RTVSPost2010Prop55
280
     0
102
RTVSPost2010PropOp55
 70
     1
102
RTVSPost2010Prop56
140
1.0
102
RTVSPost2010PropOp56
 70
     1
102
RTVSPost2010Prop57
140
1.0
102
RTVSPost2010PropOp57
 70
     1
  0
XRECORD
  5
210
102
{ACAD_REACTORS
330
20F
102
}
330
20F
100
AcDbXrecord
280
     1
102
RTVSPropertyOp0
 70
     1
102
RTVSPropertyOp1
 70
     1
102
RTVSPropertyOp2
 70
     1
102
RTVSPropertyOp3
 70
     1
102
RTVSPropertyOp4
 70
     1
102
RTVSPropertyOp5
 70
     1
102
RTVSPropertyOp6
 70
     1
102
RTVSPropertyOp7
 70
     1
102
RTVSPropertyOp8
 70
     1
102
RTVSPropertyOp9
 70
     1
102
RTVSPropertyOp10
 70
     1
102
RTVSPropertyOp11
 70
     1
102
RTVSPropertyOp12
 70
     1
102
RTVSPropertyOp13
 70
     1
102
RTVSPropertyOp14
 70
     1
102
RTVSPropertyOp15
 70
     1
102
RTVSPropertyOp16
 70
     1
102
RTVSPropertyOp17
 70
     1
102
RTVSPropertyOp18
 70
     1
102
RTVSPropertyOp19
 70
     1
102
RTVSPropertyOp20
 70
     1
102
RTVSPropertyOp21
 70
     1
102
RTVSPropertyOp22
 70
     1
102
RTVSPropertyOp23
 70
     1
102
RTVSPropertyOp24
 70
     1
102
RTVSPropertyOp25
 70
     1
102
RTVSPropertyOp26
 70
     1
102
RTVSPropertyOp27
 70
     1
102
RTVSPropertyOp28
 70
     1
102
RTVSPropertyOp29
 70
     1
102
RTVSPropertyOp30
 70
     1
102
RTVSPropertyOp31
 70
     1
102
RTVSPropertyOp32
 70
     1
102
RTVSPropertyOp33
 70
     1
102
RTVSPropertyOp34
 70
     1
102
RTVSPropertyOp35
 70
     1
102
RTVSPropertyOp36
 70
     1
102
RTVSPropertyOp37
 70
     1
102
RTVSPropertyOp38
 70
     1
102
RTVSPropertyOp39
 70
     1
102
RTVSPropertyOp40
 70
     1
102
RTVSPropertyOp41
 70
     1
102
RTVSPropertyOp42
 70
     1
102
RTVSPropertyOp43
 70
     1
102
RTVSPropertyOp44
 70
     1
102
RTVSPropertyOp45
 70
     1
102
RTVSPropertyOp46
 70
     1
102
RTVSPropertyOp47
 70
     1
102
RTVSPropertyOp48
 70
     1
102
RTVSPropertyOp49
 70
     1
102
RTVSPropertyOp50
 70
     1
102
RTVSPropertyOp51
 70
     0
102
RTVSPropertyOp52
 70
     0
102
RTVSPropertyOp53
 70
     1
102
RTVSPropertyOp54
 70
     1
102
RTVSPropertyOp55
 70
     1
102
RTVSPropertyOp56
 70
     1
102
RTVSPropertyOp57
 70
     1
102
RTVSPost2010Prop28
280
     0
102
RTVSPost2010PropOp28
 70
     1
102
RTVSPost2010Prop29
280
     1
102
RTVSPost2010PropOp29
 70
     1
102
RTVSPost2010Prop30
280
     1
102
RTVSPost2010PropOp30
 70
     1
102
RTVSPost2010Prop31
280
     0
102
RTVSPost2010PropOp31
 70
     1
102
RTVSPost2010Prop32
280
     0
102
RTVSPost2010PropOp32
 70
     1
102
RTVSPost2010Prop33
280
     0
102
RTVSPost2010PropOp33
 70
     1
102
RTVSPost2010Prop34
280
     0
102
RTVSPost2010PropOp34
 70
     1
102
RTVSPost2010Prop35
280
     0
102
RTVSPost2010PropOp35
 70
     1
102
RTVSPost2010Prop36
280
     0
102
RTVSPost2010PropOp36
 70
     1
102
RTVSPost2010Prop37
 90
       50
102
RTVSPost2010PropOp37
 70
     1
102
RTVSPost2010Prop38
140
0.0
102
RTVSPost2010PropOp38
 70
     1
102
RTVSPost2010Prop39
140
1.0
102
RTVSPost2010PropOp39
 70
     1
102
RTVSPost2010Prop40
 90
        0
102
RTVSPost2010PropOp40
 70
     1
102
RTVSPost2010Prop41ColorIndex
 90
       18
102
RTVSPost2010Prop41ColorRGB
 90
        0
102
RTVSPost2010PropOp41
 70
     1
102
RTVSPost2010Prop42
 90
       50
102
RTVSPost2010PropOp42
 70
     1
102
RTVSPost2010Prop43
 90
        3
102
RTVSPost2010PropOp43
 70
     1
102
RTVSPost2010Prop44ColorIndex
 90
        5
102
RTVSPost2010Prop44ColorRGB
 90
      255
102
RTVSPost2010PropOp44
 70
     1
102
RTVSPost2010Prop45
280
     0
102
RTVSPost2010PropOp45
 70
     1
102
RTVSPost2010Prop46
 90
       50
102
RTVSPost2010PropOp46
 70
     1
102
RTVSPost2010Prop47
 90
       50
102
RTVSPost2010PropOp47
 70
     1
102
RTVSPost2010Prop48
 90
       50
102
RTVSPost2010PropOp48
 70
     1
102
RTVSPost2010Prop49
280
     0
102
RTVSPost2010PropOp49
 70
     1
102
RTVSPost2010Prop50
 90
       50
102
RTVSPost2010PropOp50
 70
     1
102
RTVSPost2010Prop51ColorIndex
 90
      256
102
RTVSPost2010Prop51ColorRGB
 90
-16777216
102
RTVSPost2010PropOp51
 70
     0
102
RTVSPost2010Prop52
140
1.0
102
RTVSPost2010PropOp52
 70
     0
102
RTVSPost2010Prop53
 90
        2
102
RTVSPost2010PropOp53
 70
     1
102
RTVSPost2010Prop54
  1
strokes_ogs.tif
102
RTVSPost2010PropOp54
 70
     1
102
RTVSPost2010Prop55
280
     0
102
RTVSPost2010PropOp55
 70
     1
102
RTVSPost2010Prop56
140
1.0
102
RTVSPost2010PropOp56
 70
     1
102
RTVSPost2010Prop57
140
1.0
102
RTVSPost2010PropOp57
 70
     1
  0
XRECORD
  5
230
102
{ACAD_REACTORS
330
22F
102
}
330
22F
100
AcDbXrecord
280
     1
102
RTVSPropertyOp0
 70
     1
102
RTVSPropertyOp1
 70
     1
102
RTVSPropertyOp2
 70
     1
102
RTVSPropertyOp3
 70
     1
102
RTVSPropertyOp4
 70
     1
102
RTVSPropertyOp5
 70
     1
102
RTVSPropertyOp6
 70
     1
102
RTVSPropertyOp7
 70
     1
102
RTVSPropertyOp8
 70
     1
102
RTVSPropertyOp9
 70
     1
102
RTVSPropertyOp10
 70
     1
102
RTVSPropertyOp11
 70
     1
102
RTVSPropertyOp12
 70
     1
102
RTVSPropertyOp13
 70
     1
102
RTVSPropertyOp14
 70
     1
102
RTVSPropertyOp15
 70
     1
102
RTVSPropertyOp16
 70
     1
102
RTVSPropertyOp17
 70
     1
102
RTVSPropertyOp18
 70
     1
102
RTVSPropertyOp19
 70
     1
102
RTVSPropertyOp20
 70
     1
102
RTVSPropertyOp21
 70
     1
102
RTVSPropertyOp22
 70
     1
102
RTVSPropertyOp23
 70
     1
102
RTVSPropertyOp24
 70
     1
102
RTVSPropertyOp25
 70
     1
102
RTVSPropertyOp26
 70
     1
102
RTVSPropertyOp27
 70
     1
102
RTVSPropertyOp28
 70
     1
102
RTVSPropertyOp29
 70
     1
102
RTVSPropertyOp30
 70
     1
102
RTVSPropertyOp31
 70
     1
102
RTVSPropertyOp32
 70
     1
102
RTVSPropertyOp33
 70
     1
102
RTVSPropertyOp34
 70
     1
102
RTVSPropertyOp35
 70
     1
102
RTVSPropertyOp36
 70
     1
102
RTVSPropertyOp37
 70
     1
102
RTVSPropertyOp38
 70
     1
102
RTVSPropertyOp39
 70
     1
102
RTVSPropertyOp40
 70
     1
102
RTVSPropertyOp41
 70
     1
102
RTVSPropertyOp42
 70
     1
102
RTVSPropertyOp43
 70
     1
102
RTVSPropertyOp44
 70
     1
102
RTVSPropertyOp45
 70
     1
102
RTVSPropertyOp46
 70
     1
102
RTVSPropertyOp47
 70
     1
102
RTVSPropertyOp48
 70
     1
102
RTVSPropertyOp49
 70
     1
102
RTVSPropertyOp50
 70
     1
102
RTVSPropertyOp51
 70
     0
102
RTVSPropertyOp52
 70
     0
102
RTVSPropertyOp53
 70
     1
102
RTVSPropertyOp54
 70
     1
102
RTVSPropertyOp55
 70
     1
102
RTVSPropertyOp56
 70
     1
102
RTVSPropertyOp57
 70
     1
102
RTVSPost2010Prop28
280
     0
102
RTVSPost2010PropOp28
 70
     1
102
RTVSPost2010Prop29
280
     1
102
RTVSPost2010PropOp29
 70
     1
102
RTVSPost2010Prop30
280
     1
102
RTVSPost2010PropOp30
 70
     1
102
RTVSPost2010Prop31
280
     0
102
RTVSPost2010PropOp31
 70
     1
102
RTVSPost2010Prop32
280
     0
102
RTVSPost2010PropOp32
 70
     1
102
RTVSPost2010Prop33
280
     0
102
RTVSPost2010PropOp33
 70
     1
102
RTVSPost2010Prop34
280
     0
102
RTVSPost2010PropOp34
 70
     1
102
RTVSPost2010Prop35
280
     0
102
RTVSPost2010PropOp35
 70
     1
102
RTVSPost2010Prop36
280
     0
102
RTVSPost2010PropOp36
 70
     1
102
RTVSPost2010Prop37
 90
       50
102
RTVSPost2010PropOp37
 70
     1
102
RTVSPost2010Prop38
140
0.0
102
RTVSPost2010PropOp38
 70
     1
102
RTVSPost2010Prop39
140
1.0
102
RTVSPost2010PropOp39
 70
     1
102
RTVSPost2010Prop40
 90
        0
102
RTVSPost2010PropOp40
 70
     1
102
RTVSPost2010Prop41ColorIndex
 90
       18
102
RTVSPost2010Prop41ColorRGB
 90
        0
102
RTVSPost2010PropOp41
 70
     1
102
RTVSPost2010Prop42
 90
       50
102
RTVSPost2010PropOp42
 70
     1
102
RTVSPost2010Prop43
 90
        3
102
RTVSPost2010PropOp43
 70
     1
102
RTVSPost2010Prop44ColorIndex
 90
        5
102
RTVSPost2010Prop44ColorRGB
 90
      255
102
RTVSPost2010PropOp44
 70
     1
102
RTVSPost2010Prop45
280
     0
102
RTVSPost2010PropOp45
 70
     1
102
RTVSPost2010Prop46
 90
       50
102
RTVSPost2010PropOp46
 70
     1
102
RTVSPost2010Prop47
 90
       50
102
RTVSPost2010PropOp47
 70
     1
102
RTVSPost2010Prop48
 90
       50
102
RTVSPost2010PropOp48
 70
     1
102
RTVSPost2010Prop49
280
     0
102
RTVSPost2010PropOp49
 70
     1
102
RTVSPost2010Prop50
 90
       50
102
RTVSPost2010PropOp50
 70
     1
102
RTVSPost2010Prop51ColorIndex
 90
      256
102
RTVSPost2010Prop51ColorRGB
 90
-16777216
102
RTVSPost2010PropOp51
 70
     0
102
RTVSPost2010Prop52
140
1.0
102
RTVSPost2010PropOp52
 70
     0
102
RTVSPost2010Prop53
 90
        2
102
RTVSPost2010PropOp53
 70
     1
102
RTVSPost2010Prop54
  1
strokes_ogs.tif
102
RTVSPost2010PropOp54
 70
     1
102
RTVSPost2010Prop55
280
     0
102
RTVSPost2010PropOp55
 70
     1
102
RTVSPost2010Prop56
140
1.0
102
RTVSPost2010PropOp56
 70
     1
102
RTVSPost2010Prop57
140
1.0
102
RTVSPost2010PropOp57
 70
     1
  0
ENDSEC
  0
EOF
