  0
SECTION
  2
HEADER
  9
$ACADVER
  1
AC1021
  9
$ACADMAINTVER
 70
    25
  9
$DWGCODEPAGE
  3
ANSI_1252
  9
$LASTSAVEDBY
  1
Utente
  9
$INSBASE
 10
0.0
 20
0.0
 30
0.0
  9
$EXTMIN
 10
-32.49999999999974
 20
-32.49999999999985
 30
-64.70000000000002
  9
$EXTMAX
 10
32.50000000000052
 20
32.50000000000041
 30
26.62999999999991
  9
$LIMMIN
 10
0.0
 20
0.0
  9
$LIMMAX
 10
12.0
 20
9.0
  9
$ORTHOMODE
 70
     0
  9
$REGENMODE
 70
     1
  9
$FILLMODE
 70
     1
  9
$QTEXTMODE
 70
     0
  9
$MIRRTEXT
 70
     1
  9
$LTSCALE
 40
1.0
  9
$ATTMODE
 70
     1
  9
$TEXTSIZE
 40
0.2
  9
$TRACEWID
 40
0.05
  9
$TEXTSTYLE
  7
Standard
  9
$CLAYER
  8
Livello 01
  9
$CELTYPE
  6
ByLayer
  9
$CECOLOR
 62
   256
  9
$CELTSCALE
 40
1.0
  9
$DISPSILH
 70
     0
  9
$DIMSCALE
 40
1.0
  9
$DIMASZ
 40
0.18
  9
$DIMEXO
 40
0.0625
  9
$DIMDLI
 40
0.38
  9
$DIMRND
 40
0.0
  9
$DIMDLE
 40
0.0
  9
$DIMEXE
 40
0.18
  9
$DIMTP
 40
0.0
  9
$DIMTM
 40
0.0
  9
$DIMTXT
 40
0.18
  9
$DIMCEN
 40
0.09
  9
$DIMTSZ
 40
0.0
  9
$DIMTOL
 70
     0
  9
$DIMLIM
 70
     0
  9
$DIMTIH
 70
     1
  9
$DIMTOH
 70
     1
  9
$DIMSE1
 70
     0
  9
$DIMSE2
 70
     0
  9
$DIMTAD
 70
     0
  9
$DIMZIN
 70
     0
  9
$DIMBLK
  1

  9
$DIMASO
 70
     1
  9
$DIMSHO
 70
     1
  9
$DIMPOST
  1

  9
$DIMAPOST
  1

  9
$DIMALT
 70
     0
  9
$DIMALTD
 70
     2
  9
$DIMALTF
 40
25.4
  9
$DIMLFAC
 40
1.0
  9
$DIMTOFL
 70
     0
  9
$DIMTVP
 40
0.0
  9
$DIMTIX
 70
     0
  9
$DIMSOXD
 70
     0
  9
$DIMSAH
 70
     0
  9
$DIMBLK1
  1

  9
$DIMBLK2
  1

  9
$DIMSTYLE
  2
STANDARD_ACAD
  9
$DIMCLRD
 70
     0
  9
$DIMCLRE
 70
     0
  9
$DIMCLRT
 70
     0
  9
$DIMTFAC
 40
1.0
  9
$DIMGAP
 40
0.09
  9
$DIMJUST
 70
     0
  9
$DIMSD1
 70
     0
  9
$DIMSD2
 70
     0
  9
$DIMTOLJ
 70
     1
  9
$DIMTZIN
 70
     0
  9
$DIMALTZ
 70
     0
  9
$DIMALTTZ
 70
     0
  9
$DIMUPT
 70
     0
  9
$DIMDEC
 70
     4
  9
$DIMTDEC
 70
     4
  9
$DIMALTU
 70
     2
  9
$DIMALTTD
 70
     2
  9
$DIMTXSTY
  7
Standard
  9
$DIMAUNIT
 70
     0
  9
$DIMADEC
 70
     0
  9
$DIMALTRND
 40
0.0
  9
$DIMAZIN
 70
     0
  9
$DIMDSEP
 70
    46
  9
$DIMATFIT
 70
     3
  9
$DIMFRAC
 70
     0
  9
$DIMLDRBLK
  1

  9
$DIMLUNIT
 70
     2
  9
$DIMLWD
 70
    -2
  9
$DIMLWE
 70
    -2
  9
$DIMTMOVE
 70
     2
  9
$DIMFXL
 40
1.0
  9
$DIMFXLON
 70
     0
  9
$DIMJOGANG
 40
0.7853981633974483
  9
$DIMTFILL
 70
     0
  9
$DIMTFILLCLR
 70
     0
  9
$DIMARCSYM
 70
     0
  9
$DIMLTYPE
  6

  9
$DIMLTEX1
  6

  9
$DIMLTEX2
  6

  9
$LUNITS
 70
     2
  9
$LUPREC
 70
     3
  9
$SKETCHINC
 40
0.1
  9
$FILLETRAD
 40
0.0
  9
$AUNITS
 70
     0
  9
$AUPREC
 70
     0
  9
$MENU
  1
.
  9
$ELEVATION
 40
0.0
  9
$PELEVATION
 40
0.0
  9
$THICKNESS
 40
0.0
  9
$LIMCHECK
 70
     0
  9
$CHAMFERA
 40
0.0
  9
$CHAMFERB
 40
0.0
  9
$CHAMFERC
 40
0.0
  9
$CHAMFERD
 40
0.0
  9
$SKPOLY
 70
     0
  9
$TDCREATE
 40
2459901.674250995
  9
$TDUCREATE
 40
2459901.632584329
  9
$TDUPDATE
 40
2459901.674264259
  9
$TDUUPDATE
 40
2459901.632597593
  9
$TDINDWG
 40
0.0000000116
  9
$TDUSRTIMER
 40
0.0000000116
  9
$USRTIMER
 70
     1
  9
$ANGBASE
 50
0.0
  9
$ANGDIR
 70
     0
  9
$PDMODE
 70
     0
  9
$PDSIZE
 40
0.0
  9
$PLINEWID
 40
0.0
  9
$SPLFRAME
 70
     0
  9
$SPLINETYPE
 70
     6
  9
$SPLINESEGS
 70
     8
  9
$HANDSEED
  5
288
  9
$SURFTAB1
 70
     6
  9
$SURFTAB2
 70
     6
  9
$SURFTYPE
 70
     6
  9
$SURFU
 70
     6
  9
$SURFV
 70
     6
  9
$UCSBASE
  2

  9
$UCSNAME
  2

  9
$UCSORG
 10
0.0
 20
0.0
 30
0.0
  9
$UCSXDIR
 10
1.0
 20
0.0
 30
0.0
  9
$UCSYDIR
 10
0.0
 20
1.0
 30
0.0
  9
$UCSORTHOREF
  2

  9
$UCSORTHOVIEW
 70
     0
  9
$UCSORGTOP
 10
0.0
 20
0.0
 30
0.0
  9
$UCSORGBOTTOM
 10
0.0
 20
0.0
 30
0.0
  9
$UCSORGLEFT
 10
0.0
 20
0.0
 30
0.0
  9
$UCSORGRIGHT
 10
0.0
 20
0.0
 30
0.0
  9
$UCSORGFRONT
 10
0.0
 20
0.0
 30
0.0
  9
$UCSORGBACK
 10
0.0
 20
0.0
 30
0.0
  9
$PUCSBASE
  2

  9
$PUCSNAME
  2

  9
$PUCSORG
 10
0.0
 20
0.0
 30
0.0
  9
$PUCSXDIR
 10
1.0
 20
0.0
 30
0.0
  9
$PUCSYDIR
 10
0.0
 20
1.0
 30
0.0
  9
$PUCSORTHOREF
  2

  9
$PUCSORTHOVIEW
 70
     0
  9
$PUCSORGTOP
 10
0.0
 20
0.0
 30
0.0
  9
$PUCSORGBOTTOM
 10
0.0
 20
0.0
 30
0.0
  9
$PUCSORGLEFT
 10
0.0
 20
0.0
 30
0.0
  9
$PUCSORGRIGHT
 10
0.0
 20
0.0
 30
0.0
  9
$PUCSORGFRONT
 10
0.0
 20
0.0
 30
0.0
  9
$PUCSORGBACK
 10
0.0
 20
0.0
 30
0.0
  9
$USERI1
 70
     0
  9
$USERI2
 70
     0
  9
$USERI3
 70
     0
  9
$USERI4
 70
     0
  9
$USERI5
 70
     0
  9
$USERR1
 40
0.0
  9
$USERR2
 40
0.0
  9
$USERR3
 40
0.0
  9
$USERR4
 40
0.0
  9
$USERR5
 40
0.0
  9
$WORLDVIEW
 70
     1
  9
$SHADEDGE
 70
     3
  9
$SHADEDIF
 70
    70
  9
$TILEMODE
 70
     1
  9
$MAXACTVP
 70
    64
  9
$PINSBASE
 10
0.0
 20
0.0
 30
0.0
  9
$PLIMCHECK
 70
     0
  9
$PEXTMIN
 10
1.000000000000000E+20
 20
1.000000000000000E+20
 30
1.000000000000000E+20
  9
$PEXTMAX
 10
-1.000000000000000E+20
 20
-1.000000000000000E+20
 30
-1.000000000000000E+20
  9
$PLIMMIN
 10
0.0
 20
0.0
  9
$PLIMMAX
 10
12.0
 20
9.0
  9
$UNITMODE
 70
     0
  9
$VISRETAIN
 70
     1
  9
$PLINEGEN
 70
     0
  9
$PSLTSCALE
 70
     1
  9
$TREEDEPTH
 70
  3020
  9
$CMLSTYLE
  2
Standard
  9
$CMLJUST
 70
     0
  9
$CMLSCALE
 40
1.0
  9
$PROXYGRAPHICS
 70
     1
  9
$MEASUREMENT
 70
     1
  9
$CELWEIGHT
370
    -1
  9
$ENDCAPS
280
     0
  9
$JOINSTYLE
280
     0
  9
$LWDISPLAY
290
     0
  9
$INSUNITS
 70
     4
  9
$HYPERLINKBASE
  1

  9
$STYLESHEET
  1

  9
$XEDIT
290
     1
  9
$CEPSNTYPE
380
     0
  9
$PSTYLEMODE
290
     1
  9
$FINGERPRINTGUID
  2
{c2c8ad7d-29e4-45b9-91b1-a481920fc10e}
  9
$VERSIONGUID
  2
{FAEB1C32-E019-11D5-929B-00C0DF256EC4}
  9
$EXTNAMES
290
     1
  9
$PSVPSCALE
 40
0.0
  9
$OLESTARTUP
290
     0
  9
$SORTENTS
280
   127
  9
$INDEXCTL
280
     0
  9
$HIDETEXT
280
     1
  9
$XCLIPFRAME
290
     0
  9
$HALOGAP
280
     0
  9
$OBSCOLOR
 70
   257
  9
$OBSLTYPE
280
     0
  9
$INTERSECTIONDISPLAY
280
     0
  9
$INTERSECTIONCOLOR
 70
   257
  9
$DIMASSOC
280
     2
  9
$PROJECTNAME
  1

  9
$CAMERADISPLAY
290
     0
  9
$LENSLENGTH
 40
50.0
  9
$CAMERAHEIGHT
 40
0.0
  9
$STEPSPERSEC
 40
2.0
  9
$STEPSIZE
 40
6.0
  9
$3DDWFPREC
 40
2.0
  9
$PSOLWIDTH
 40
0.25
  9
$PSOLHEIGHT
 40
4.0
  9
$LOFTANG1
 40
1.570796326794897
  9
$LOFTANG2
 40
1.570796326794897
  9
$LOFTMAG1
 40
0.0
  9
$LOFTMAG2
 40
0.0
  9
$LOFTPARAM
 70
     7
  9
$LOFTNORMALS
280
     1
  9
$LATITUDE
 40
37.795
  9
$LONGITUDE
 40
-122.394
  9
$NORTHDIRECTION
 40
0.0
  9
$TIMEZONE
 70
 -8000
  9
$LIGHTGLYPHDISPLAY
280
     1
  9
$TILEMODELIGHTSYNCH
280
     1
  9
$CMATERIAL
347
44
  9
$SOLIDHIST
280
     0
  9
$SHOWHIST
280
     1
  9
$DWFFRAME
280
     2
  9
$DGNFRAME
280
     2
  9
$REALWORLDSCALE
290
     1
  9
$INTERFERECOLOR
 62
   256
  9
$CSHADOW
280
     0
  9
$SHADOWPLANELOCATION
 40
0.0
  0
ENDSEC
  0
SECTION
  2
CLASSES
  0
CLASS
  1
ACDBDICTIONARYWDFLT
  2
AcDbDictionaryWithDefault
  3
ObjectDBX Classes
 90
        0
 91
        3
280
     0
281
     0
  0
CLASS
  1
VISUALSTYLE
  2
AcDbVisualStyle
  3
ObjectDBX Classes
 90
     4095
 91
        3
280
     0
281
     0
  0
CLASS
  1
MATERIAL
  2
AcDbMaterial
  3
ObjectDBX Classes
 90
     1153
 91
        3
280
     0
281
     0
  0
CLASS
  1
SCALE
  2
AcDbScale
  3
ObjectDBX Classes
 90
     1153
 91
        3
280
     0
281
     0
  0
CLASS
  1
TABLESTYLE
  2
AcDbTableStyle
  3
ObjectDBX Classes
 90
     4095
 91
        3
280
     0
281
     0
  0
CLASS
  1
MLEADERSTYLE
  2
AcDbMLeaderStyle
  3
ACDB_MLEADERSTYLE_CLASS
 90
     4095
 91
        3
280
     0
281
     0
  0
CLASS
  1
SUN
  2
AcDbSun
  3
SCENEOE
 90
     1153
 91
        3
280
     0
281
     0
  0
CLASS
  1
DICTIONARYVAR
  2
AcDbDictionaryVar
  3
ObjectDBX Classes
 90
        0
 91
        3
280
     0
281
     0
  0
CLASS
  1
CELLSTYLEMAP
  2
AcDbCellStyleMap
  3
ObjectDBX Classes
 90
     1152
 91
        3
280
     0
281
     0
  0
ENDSEC
  0
SECTION
  2
TABLES
  0
TABLE
  2
VPORT
  5
8
330
0
100
AcDbSymbolTable
 70
     1
  0
VPORT
  5
29
330
8
100
AcDbSymbolTableRecord
100
AcDbViewportTableRecord
  2
*Active
 70
     0
 10
0.0
 20
0.0
 11
1.0
 21
1.0
 12
10.42990654205607
 22
4.5
 13
0.0
 23
0.0
 14
0.5
 24
0.5
 15
0.5
 25
0.5
 16
0.0
 26
0.0
 36
1.0
 17
0.0
 27
0.0
 37
0.0
 40
9.0
 41
1.972972972850329
 42
50.0
 43
0.0
 44
0.0
 50
0.0
 51
0.0
 71
     0
 72
   100
 73
     1
 74
     3
 75
     0
 76
     0
 77
     0
 78
     0
281
     0
 65
     1
110
0.0
120
0.0
130
0.0
111
1.0
121
0.0
131
0.0
112
0.0
122
1.0
132
0.0
 79
     0
146
0.0
348
2F
 60
     3
 61
     5
292
     1
282
     1
141
0.0
142
0.0
 63
   250
361
5D
  0
ENDTAB
  0
TABLE
  2
LTYPE
  5
5
330
0
100
AcDbSymbolTable
 70
     1
  0
LTYPE
  5
14
330
5
100
AcDbSymbolTableRecord
100
AcDbLinetypeTableRecord
  2
ByBlock
 70
     0
  3

 72
    65
 73
     0
 40
0.0
  0
LTYPE
  5
15
330
5
100
AcDbSymbolTableRecord
100
AcDbLinetypeTableRecord
  2
ByLayer
 70
     0
  3

 72
    65
 73
     0
 40
0.0
  0
LTYPE
  5
16
330
5
100
AcDbSymbolTableRecord
100
AcDbLinetypeTableRecord
  2
Continuous
 70
     0
  3
Solid line
 72
    65
 73
     0
 40
0.0
  0
ENDTAB
  0
TABLE
  2
LAYER
  5
2
330
0
100
AcDbSymbolTable
 70
     2
  0
LAYER
  5
10
330
2
100
AcDbSymbolTableRecord
100
AcDbLayerTableRecord
  2
0
 70
     0
 62
     7
  6
Continuous
370
    -3
390
F
347
46
  0
LAYER
  5
5F
330
2
100
AcDbSymbolTableRecord
100
AcDbLayerTableRecord
  2
Livello 01
 70
     0
 62
    18
420
        0
  6
Continuous
370
    -3
390
F
347
46
  0
ENDTAB
  0
TABLE
  2
STYLE
  5
3
330
0
100
AcDbSymbolTable
 70
     1
  0
STYLE
  5
11
330
3
100
AcDbSymbolTableRecord
100
AcDbTextStyleTableRecord
  2
Standard
 70
     0
 40
0.0
 41
1.0
 50
0.0
 71
     0
 42
0.2
  3
txt
  4

  0
ENDTAB
  0
TABLE
  2
VIEW
  5
6
330
0
100
AcDbSymbolTable
 70
     0
  0
ENDTAB
  0
TABLE
  2
UCS
  5
7
330
0
100
AcDbSymbolTable
 70
     0
  0
ENDTAB
  0
TABLE
  2
APPID
  5
9
330
0
100
AcDbSymbolTable
 70
     3
  0
APPID
  5
12
330
9
100
AcDbSymbolTableRecord
100
AcDbRegAppTableRecord
  2
ACAD
 70
     0
  0
APPID
  5
5E
330
9
100
AcDbSymbolTableRecord
100
AcDbRegAppTableRecord
  2
Rhino
 70
     0
  0
APPID
  5
280
330
9
100
AcDbSymbolTableRecord
100
AcDbRegAppTableRecord
  2
ACAD_MLEADERVER
 70
     0
  0
ENDTAB
  0
TABLE
  2
DIMSTYLE
  5
A
330
0
100
AcDbSymbolTable
 70
     1
100
AcDbDimStyleTable
  0
DIMSTYLE
105
27
330
A
100
AcDbSymbolTableRecord
100
AcDbDimStyleTableRecord
  2
STANDARD_ACAD
 70
     0
178
     0
340
11
  0
ENDTAB
  0
TABLE
  2
BLOCK_RECORD
  5
1
330
0
100
AcDbSymbolTable
 70
     9
  0
BLOCK_RECORD
  5
1F
330
1
100
AcDbSymbolTableRecord
100
AcDbBlockTableRecord
  2
*Model_Space
340
22
 70
     0
280
     1
281
     0
  0
BLOCK_RECORD
  5
1B
330
1
100
AcDbSymbolTableRecord
100
AcDbBlockTableRecord
  2
*Paper_Space
340
1E
 70
     0
280
     1
281
     0
  0
BLOCK_RECORD
  5
23
330
1
100
AcDbSymbolTableRecord
100
AcDbBlockTableRecord
  2
*Paper_Space0
340
26
 70
     0
280
     1
281
     0
  0
BLOCK_RECORD
  5
60
330
1
100
AcDbSymbolTableRecord
100
AcDbBlockTableRecord
  2
3305Y408-A0
340
0
102
{BLKREFS
331
24A
102
}
 70
     0
280
     1
281
     0
  0
BLOCK_RECORD
  5
61
330
1
100
AcDbSymbolTableRecord
100
AcDbBlockTableRecord
  2
10CA24560YY
340
0
102
{BLKREFS
331
BD
102
}
 70
     0
280
     1
281
     0
  0
BLOCK_RECORD
  5
BE
330
1
100
AcDbSymbolTableRecord
100
AcDbBlockTableRecord
  2
10BO11360YY
340
0
102
{BLKREFS
331
103
102
}
 70
     0
280
     1
281
     0
  0
BLOCK_RECORD
  5
104
330
1
100
AcDbSymbolTableRecord
100
AcDbBlockTableRecord
  2
10OR19860YY
340
0
102
{BLKREFS
331
10F
102
}
 70
     0
280
     1
281
     0
  0
BLOCK_RECORD
  5
110
330
1
100
AcDbSymbolTableRecord
100
AcDbBlockTableRecord
  2
10PL14760YY
340
0
102
{BLKREFS
331
19F
102
}
 70
     0
280
     1
281
     0
  0
BLOCK_RECORD
  5
1A0
330
1
100
AcDbSymbolTableRecord
100
AcDbBlockTableRecord
  2
10AN0156000
340
0
102
{BLKREFS
331
1CA
102
}
 70
     0
280
     1
281
     0
  0
BLOCK_RECORD
  5
1CB
330
1
100
AcDbSymbolTableRecord
100
AcDbBlockTableRecord
  2
10VI0566000
340
0
102
{BLKREFS
331
209
102
}
 70
     0
280
     1
281
     0
  0
BLOCK_RECORD
  5
20A
330
1
100
AcDbSymbolTableRecord
100
AcDbBlockTableRecord
  2
10VI1266000
340
0
102
{BLKREFS
331
246
331
247
102
}
 70
     0
280
     1
281
     0
  0
ENDTAB
  0
ENDSEC
  0
SECTION
  2
BLOCKS
  0
BLOCK
  5
20
330
1F
100
AcDbEntity
  8
0
100
AcDbBlockBegin
  2
*Model_Space
 70
     0
 10
0.0
 20
0.0
 30
0.0
  3
*Model_Space
  1

  0
ENDBLK
  5
21
330
1F
100
AcDbEntity
  8
0
100
AcDbBlockEnd
  0
BLOCK
  5
1C
330
1B
100
AcDbEntity
 67
     1
  8
0
100
AcDbBlockBegin
  2
*Paper_Space
 70
     0
 10
0.0
 20
0.0
 30
0.0
  3
*Paper_Space
  1

  0
ENDBLK
  5
1D
330
1B
100
AcDbEntity
 67
     1
  8
0
100
AcDbBlockEnd
  0
BLOCK
  5
24
330
23
100
AcDbEntity
  8
0
100
AcDbBlockBegin
  2
*Paper_Space0
 70
     0
 10
0.0
 20
0.0
 30
0.0
  3
*Paper_Space0
  1

  0
ENDBLK
  5
25
330
23
100
AcDbEntity
  8
0
100
AcDbBlockEnd
  0
BLOCK
  5
248
330
60
100
AcDbEntity
  8
0
100
AcDbBlockBegin
  2
3305Y408-A0
 70
     0
 10
0.0
 20
0.0
 30
0.0
  3
3305Y408-A0
  1

  0
INSERT
  5
BD
330
60
100
AcDbEntity
  8
Livello 01
100
AcDbBlockReference
  2
10CA24560YY
 10
0.0000000000003922
 20
0.0000000000002617
 30
-33.3700000000001
 50
180.0
  0
INSERT
  5
103
330
60
100
AcDbEntity
  8
Livello 01
100
AcDbBlockReference
  2
10BO11360YY
 10
49.99999999999946
 20
0.0000000000000883
 30
10.37000000000002
 50
359.9999999999998
210
-4.289195023842730E-15
220
-5.904114563248060E-16
230
-1.0
  0
INSERT
  5
10F
330
60
100
AcDbEntity
  8
Livello 01
100
AcDbBlockReference
  2
10OR19860YY
 10
0.0000000000004539
 20
0.0000000000002632
 30
-13.37
 50
0.0000000000001884
  0
INSERT
  5
19F
330
60
100
AcDbEntity
  8
Livello 01
100
AcDbBlockReference
  2
10PL14760YY
 10
-0.0000000000004623
 20
0.0000000000002658
 30
-2.00000000000002
 50
269.9999999999999
210
-3.385553237459210E-15
220
6.132595530611000E-16
230
-1.0
  0
INSERT
  5
1CA
330
60
100
AcDbEntity
  8
Livello 01
100
AcDbBlockReference
  2
10AN0156000
 10
0.0000000000002815
 20
0.0000000000002581
 30
-61.9
 50
89.99999999999984
  0
INSERT
  5
209
330
60
100
AcDbEntity
  8
Livello 01
100
AcDbBlockReference
  2
10VI0566000
 10
-0.0000000000004368
 20
0.000000000000276
 30
11.9
 50
90.00000000000011
210
-2.423211504161130E-15
220
2.691590829437380E-16
230
-1.0
  0
INSERT
  5
246
330
60
100
AcDbEntity
  8
Livello 01
100
AcDbBlockReference
  2
10VI1266000
 10
-0.0000000000004638
 20
-7.999999999999999
 30
6.99999999999999
 50
269.9999999999999
210
-7.442424855537100E-16
220
1.0
230
1.273749794111240E-15
  0
INSERT
  5
247
330
60
100
AcDbEntity
  8
Livello 01
100
AcDbBlockReference
  2
10VI1266000
 10
0.0000000000004664
 20
-7.999999999999992
 30
7.00000000000001
 50
270.0000000000001
210
1.709865723611540E-15
220
-1.0
230
-1.178080764534970E-15
  0
ENDBLK
  5
249
330
60
100
AcDbEntity
  8
0
100
AcDbBlockEnd
  0
BLOCK
  5
BB
330
61
100
AcDbEntity
  8
0
100
AcDbBlockBegin
  2
10CA24560YY
 70
     0
 10
0.0
 20
0.0
 30
0.0
  3
10CA24560YY
  1

  0
ARC
  5
62
330
61
100
AcDbEntity
  8
Livello 01
100
AcDbCircle
 10
0.0
 20
0.0
 30
46.0
 40
20.0
100
AcDbArc
 50
90.00000000000006
 51
359.9999999999999
  0
ARC
  5
63
330
61
100
AcDbEntity
  8
Livello 01
100
AcDbCircle
 10
0.0
 20
0.0
 30
-5.0
 40
20.0
210
0.0
220
0.0
230
-1.0
100
AcDbArc
 50
0.0
 51
180.0
  0
LINE
  5
64
330
61
100
AcDbEntity
  8
Livello 01
100
AcDbLine
 10
20.0
 20
0.0
 30
5.000000000000002
 11
20.0
 21
0.0
 31
46.00000000000001
  0
ARC
  5
65
330
61
100
AcDbEntity
  8
Livello 01
100
AcDbCircle
 10
0.0
 20
0.0
 30
46.0
 40
20.0
100
AcDbArc
 50
359.9999999999999
 51
90.00000000000006
  0
ARC
  5
66
330
61
100
AcDbEntity
  8
Livello 01
100
AcDbCircle
 10
0.0
 20
0.0
 30
-5.0
 40
20.0
210
0.0
220
0.0
230
-1.0
100
AcDbArc
 50
180.0
 51
0.0
  0
ARC
  5
67
330
61
100
AcDbEntity
  8
Livello 01
100
AcDbCircle
 10
0.0
 20
0.0
 30
-60.0
 40
22.25
210
0.0
220
0.0
230
-1.0
100
AcDbArc
 50
0.0
 51
180.0
  0
CIRCLE
  5
68
330
61
100
AcDbEntity
  8
Livello 01
100
AcDbCircle
 10
0.0
 20
0.0
 30
43.5
 40
22.25
  0
LINE
  5
69
330
61
100
AcDbEntity
  8
Livello 01
100
AcDbLine
 10
-22.25
 20
0.0
 30
60.0
 11
-22.25
 21
0.0
 31
43.5
  0
ARC
  5
6A
330
61
100
AcDbEntity
  8
Livello 01
100
AcDbCircle
 10
0.0
 20
0.0
 30
-60.0
 40
22.25
210
0.0
220
0.0
230
-1.0
100
AcDbArc
 50
180.0
 51
0.0
  0
CIRCLE
  5
6B
330
61
100
AcDbEntity
  8
Livello 01
100
AcDbCircle
 10
0.0
 20
0.0
 30
46.0
 40
20.4585
  0
CIRCLE
  5
6C
330
61
100
AcDbEntity
  8
Livello 01
100
AcDbCircle
 10
0.0
 20
0.0
 30
-48.0
 40
20.4585
210
0.0
220
0.0
230
-1.0
  0
LINE
  5
6D
330
61
100
AcDbEntity
  8
Livello 01
100
AcDbLine
 10
0.0
 20
-20.4585
 30
48.0
 11
0.0
 21
-20.4585
 31
46.0
  0
CIRCLE
  5
6E
330
61
100
AcDbEntity
  8
Livello 01
100
AcDbCircle
 10
0.0
 20
0.0
 30
-57.0
 40
21.25
210
0.0
220
0.0
230
-1.0
  0
CIRCLE
  5
6F
330
61
100
AcDbEntity
  8
Livello 01
100
AcDbCircle
 10
0.0
 20
0.0
 30
60.0
 40
21.25
  0
LINE
  5
70
330
61
100
AcDbEntity
  8
Livello 01
100
AcDbLine
 10
0.0
 20
-21.25
 30
59.99999999999999
 11
0.0
 21
-21.25
 31
57.0
  0
ARC
  5
71
330
61
100
AcDbEntity
  8
Livello 01
100
AcDbCircle
 10
0.0
 20
0.0
 30
-57.0
 40
20.4585
210
0.0
220
0.0
230
-1.0
100
AcDbArc
 50
270.0
 51
0.0
  0
LINE
  5
72
330
61
100
AcDbEntity
  8
Livello 01
100
AcDbLine
 10
0.0
 20
-20.4585
 30
57.0
 11
0.0
 21
-20.4585
 31
48.0
  0
ARC
  5
73
330
61
100
AcDbEntity
  8
Livello 01
100
AcDbCircle
 10
0.0
 20
0.0
 30
-57.0
 40
20.4585
210
0.0
220
0.0
230
-1.0
100
AcDbArc
 50
0.0
 51
270.0
  0
CIRCLE
  5
74
330
61
100
AcDbEntity
  8
Livello 01
100
AcDbCircle
 10
0.0
 20
0.0
 30
-43.5
 40
21.2
210
0.0
220
0.0
230
-1.0
  0
CIRCLE
  5
75
330
61
100
AcDbEntity
  8
Livello 01
100
AcDbCircle
 10
0.0
 20
0.0
 30
0.0
 40
21.2
210
0.0
220
0.0
230
-1.0
  0
LINE
  5
76
330
61
100
AcDbEntity
  8
Livello 01
100
AcDbLine
 10
21.2
 20
0.0
 30
43.5
 11
21.2
 21
0.0
 31
-0.0000000000000071
  0
ARC
  5
77
330
61
100
AcDbEntity
  8
Livello 01
100
AcDbCircle
 10
0.0
 20
0.0
 30
6.0
 40
18.5
210
0.0
220
0.0
230
-1.0
100
AcDbArc
 50
0.000000000000007
 51
180.0
  0
ARC
  5
78
330
61
100
AcDbEntity
  8
Livello 01
100
AcDbCircle
 10
0.0
 20
0.0
 30
-5.0
 40
18.5
210
0.0
220
0.0
230
-1.0
100
AcDbArc
 50
180.0
 51
270.0
  0
LINE
  5
79
330
61
100
AcDbEntity
  8
Livello 01
100
AcDbLine
 10
18.5
 20
0.0
 30
-5.999999999999999
 11
18.5
 21
0.0
 31
5.000000000000003
  0
ARC
  5
7A
330
61
100
AcDbEntity
  8
Livello 01
100
AcDbCircle
 10
0.0
 20
0.0
 30
6.0
 40
18.5
210
0.0
220
0.0
230
-1.0
100
AcDbArc
 50
180.0
 51
0.000000000000007
  0
ARC
  5
7B
330
61
100
AcDbEntity
  8
Livello 01
100
AcDbCircle
 10
0.0
 20
0.0
 30
-5.0
 40
18.5
210
0.0
220
0.0
230
-1.0
100
AcDbArc
 50
270.0
 51
180.0
  0
CIRCLE
  5
7C
330
61
100
AcDbEntity
  8
Livello 01
100
AcDbCircle
 10
0.0
 20
0.0
 30
-6.0
 40
19.75
  0
CIRCLE
  5
7D
330
61
100
AcDbEntity
  8
Livello 01
100
AcDbCircle
 10
0.0
 20
0.0
 30
0.0
 40
19.75
  0
LINE
  5
7E
330
61
100
AcDbEntity
  8
Livello 01
100
AcDbLine
 10
-19.75
 20
0.0
 30
-6.0
 11
-19.75
 21
0.0
 31
0.0000000000000022
  0
CIRCLE
  5
7F
330
61
100
AcDbEntity
  8
Livello 01
100
AcDbCircle
 10
0.0
 20
0.0
 30
25.5
 40
20.0
  0
LINE
  5
80
330
61
100
AcDbEntity
  8
Livello 01
100
AcDbLine
 10
0.0
 20
20.0
 30
5.000000000000002
 11
0.0
 21
20.0
 31
46.00000000000001
  0
LINE
  5
81
330
61
100
AcDbEntity
  8
Livello 01
100
AcDbLine
 10
-20.0
 20
0.0
 30
5.000000000000002
 11
-20.0
 21
0.0
 31
46.00000000000001
  0
LINE
  5
82
330
61
100
AcDbEntity
  8
Livello 01
100
AcDbLine
 10
0.0
 20
-20.0
 30
5.000000000000002
 11
0.0
 21
-20.0
 31
46.00000000000001
  0
CIRCLE
  5
83
330
61
100
AcDbEntity
  8
Livello 01
100
AcDbCircle
 10
0.0
 20
0.0
 30
-51.75
 40
22.25
210
0.0
220
0.0
230
-1.0
  0
LINE
  5
84
330
61
100
AcDbEntity
  8
Livello 01
100
AcDbLine
 10
0.0
 20
22.25
 30
60.00000000000001
 11
0.0
 21
22.25
 31
43.5
  0
LINE
  5
85
330
61
100
AcDbEntity
  8
Livello 01
100
AcDbLine
 10
22.25
 20
0.0
 30
60.00000000000001
 11
22.25
 21
0.0
 31
43.5
  0
LINE
  5
86
330
61
100
AcDbEntity
  8
Livello 01
100
AcDbLine
 10
0.0
 20
-22.25
 30
60.00000000000001
 11
0.0
 21
-22.25
 31
43.5
  0
LINE
  5
87
330
61
100
AcDbEntity
  8
Livello 01
100
AcDbLine
 10
21.2
 20
-0.0000000000000018
 30
0.0
 11
19.75
 21
-0.0000000000000018
 31
0.0
  0
LINE
  5
88
330
61
100
AcDbEntity
  8
Livello 01
100
AcDbLine
 10
-19.75
 20
-0.0000000000000018
 30
0.0
 11
-21.20000000000001
 21
-0.0000000000000018
 31
0.0
  0
LINE
  5
89
330
61
100
AcDbEntity
  8
Livello 01
100
AcDbLine
 10
-0.0000000000000018
 20
-21.2
 30
0.0
 11
-0.0000000000000018
 21
-19.75
 31
0.0
  0
LINE
  5
8A
330
61
100
AcDbEntity
  8
Livello 01
100
AcDbLine
 10
-0.0000000000000018
 20
19.75
 30
0.0
 11
-0.0000000000000018
 21
21.2
 31
0.0
  0
CIRCLE
  5
8B
330
61
100
AcDbEntity
  8
Livello 01
100
AcDbCircle
 10
0.0
 20
0.0
 30
-47.0
 40
20.4585
210
0.0
220
0.0
230
-1.0
  0
LINE
  5
8C
330
61
100
AcDbEntity
  8
Livello 01
100
AcDbLine
 10
-20.4585
 20
0.0
 30
48.0
 11
-20.4585
 21
0.0
 31
46.0
  0
LINE
  5
8D
330
61
100
AcDbEntity
  8
Livello 01
100
AcDbLine
 10
0.0
 20
20.4585
 30
48.0
 11
0.0
 21
20.4585
 31
46.0
  0
LINE
  5
8E
330
61
100
AcDbEntity
  8
Livello 01
100
AcDbLine
 10
20.4585
 20
0.0
 30
48.0
 11
20.4585
 21
0.0
 31
46.0
  0
LINE
  5
8F
330
61
100
AcDbEntity
  8
Livello 01
100
AcDbLine
 10
22.25
 20
0.0000000000000018
 30
60.0
 11
21.25
 21
0.0000000000000018
 31
60.0
  0
LINE
  5
90
330
61
100
AcDbEntity
  8
Livello 01
100
AcDbLine
 10
-21.25
 20
0.0000000000000018
 30
60.0
 11
-22.25
 21
0.0000000000000018
 31
60.0
  0
LINE
  5
91
330
61
100
AcDbEntity
  8
Livello 01
100
AcDbLine
 10
-0.0000000000000018
 20
-22.25
 30
60.0
 11
-0.0000000000000018
 21
-21.25
 31
60.0
  0
LINE
  5
92
330
61
100
AcDbEntity
  8
Livello 01
100
AcDbLine
 10
-0.0000000000000018
 20
21.25
 30
60.0
 11
-0.0000000000000018
 21
22.25
 31
60.0
  0
LINE
  5
93
330
61
100
AcDbEntity
  8
Livello 01
100
AcDbLine
 10
21.25
 20
0.0000000000000018
 30
57.0
 11
20.4585
 21
0.0000000000000018
 31
57.0
  0
LINE
  5
94
330
61
100
AcDbEntity
  8
Livello 01
100
AcDbLine
 10
-20.4585
 20
0.0000000000000018
 30
57.0
 11
-21.25
 21
0.0000000000000018
 31
57.0
  0
LINE
  5
95
330
61
100
AcDbEntity
  8
Livello 01
100
AcDbLine
 10
-0.0000000000000018
 20
-21.25
 30
57.0
 11
-0.0000000000000018
 21
-20.4585
 31
57.0
  0
LINE
  5
96
330
61
100
AcDbEntity
  8
Livello 01
100
AcDbLine
 10
-0.0000000000000018
 20
20.4585
 30
57.0
 11
-0.0000000000000018
 21
21.25
 31
57.0
  0
CIRCLE
  5
97
330
61
100
AcDbEntity
  8
Livello 01
100
AcDbCircle
 10
0.0
 20
0.0
 30
-58.50000000000001
 40
21.25
210
0.0
220
0.0
230
-1.0
  0
LINE
  5
98
330
61
100
AcDbEntity
  8
Livello 01
100
AcDbLine
 10
-21.25
 20
0.0
 30
60.00000000000001
 11
-21.25
 21
0.0
 31
57.0
  0
LINE
  5
99
330
61
100
AcDbEntity
  8
Livello 01
100
AcDbLine
 10
0.0
 20
21.25
 30
60.00000000000001
 11
0.0
 21
21.25
 31
57.0
  0
LINE
  5
9A
330
61
100
AcDbEntity
  8
Livello 01
100
AcDbLine
 10
21.25
 20
0.0
 30
60.00000000000001
 11
21.25
 21
0.0
 31
57.0
  0
LINE
  5
9B
330
61
100
AcDbEntity
  8
Livello 01
100
AcDbLine
 10
20.4585
 20
0.0000000000000018
 30
46.0
 11
19.99999999999999
 21
0.0000000000000018
 31
46.0
  0
LINE
  5
9C
330
61
100
AcDbEntity
  8
Livello 01
100
AcDbLine
 10
-20.0
 20
0.0000000000000018
 30
46.0
 11
-20.4585
 21
0.0000000000000018
 31
46.0
  0
LINE
  5
9D
330
61
100
AcDbEntity
  8
Livello 01
100
AcDbLine
 10
-0.0000000000000018
 20
-20.4585
 30
46.0
 11
-0.0000000000000018
 21
-20.0
 31
46.0
  0
LINE
  5
9E
330
61
100
AcDbEntity
  8
Livello 01
100
AcDbLine
 10
-0.0000000000000018
 20
20.0
 30
46.0
 11
-0.0000000000000018
 21
20.4585
 31
46.0
  0
CIRCLE
  5
9F
330
61
100
AcDbEntity
  8
Livello 01
100
AcDbCircle
 10
0.0
 20
0.0
 30
-52.5
 40
20.4585
210
0.0
220
0.0
230
-1.0
  0
LINE
  5
A0
330
61
100
AcDbEntity
  8
Livello 01
100
AcDbLine
 10
-20.4585
 20
0.0
 30
57.0
 11
-20.4585
 21
0.0
 31
48.0
  0
LINE
  5
A1
330
61
100
AcDbEntity
  8
Livello 01
100
AcDbLine
 10
0.0
 20
20.4585
 30
57.0
 11
0.0
 21
20.4585
 31
48.0
  0
LINE
  5
A2
330
61
100
AcDbEntity
  8
Livello 01
100
AcDbLine
 10
20.4585
 20
0.0
 30
57.0
 11
20.4585
 21
0.0
 31
48.0
  0
CIRCLE
  5
A3
330
61
100
AcDbEntity
  8
Livello 01
100
AcDbCircle
 10
0.0
 20
0.0
 30
-21.75
 40
21.2
210
0.0
220
0.0
230
-1.0
  0
LINE
  5
A4
330
61
100
AcDbEntity
  8
Livello 01
100
AcDbLine
 10
0.0
 20
-21.2
 30
43.49999999999999
 11
0.0
 21
-21.2
 31
-0.0000000000000115
  0
LINE
  5
A5
330
61
100
AcDbEntity
  8
Livello 01
100
AcDbLine
 10
-21.2
 20
0.0
 30
43.49999999999999
 11
-21.2
 21
0.0
 31
-0.0000000000000115
  0
LINE
  5
A6
330
61
100
AcDbEntity
  8
Livello 01
100
AcDbLine
 10
0.0
 20
21.2
 30
43.49999999999999
 11
0.0
 21
21.2
 31
-0.0000000000000115
  0
LINE
  5
A7
330
61
100
AcDbEntity
  8
Livello 01
100
AcDbLine
 10
22.25
 20
-0.0000000000000018
 30
43.5
 11
21.2
 21
-0.0000000000000018
 31
43.5
  0
LINE
  5
A8
330
61
100
AcDbEntity
  8
Livello 01
100
AcDbLine
 10
-21.2
 20
-0.0000000000000018
 30
43.5
 11
-22.25
 21
-0.0000000000000018
 31
43.5
  0
LINE
  5
A9
330
61
100
AcDbEntity
  8
Livello 01
100
AcDbLine
 10
0.0000000000000018
 20
-22.25
 30
43.5
 11
0.0000000000000018
 21
-21.2
 31
43.5
  0
LINE
  5
AA
330
61
100
AcDbEntity
  8
Livello 01
100
AcDbLine
 10
0.0000000000000018
 20
21.2
 30
43.5
 11
0.0000000000000018
 21
22.25000000000001
 31
43.5
  0
LINE
  5
AB
330
61
100
AcDbEntity
  8
Livello 01
100
AcDbLine
 10
20.0
 20
-0.0000000000000018
 30
5.0
 11
18.5
 21
-0.0000000000000018
 31
5.0
  0
LINE
  5
AC
330
61
100
AcDbEntity
  8
Livello 01
100
AcDbLine
 10
-18.5
 20
-0.0000000000000018
 30
5.0
 11
-20.0
 21
-0.0000000000000018
 31
5.0
  0
LINE
  5
AD
330
61
100
AcDbEntity
  8
Livello 01
100
AcDbLine
 10
0.0000000000000018
 20
-19.99999999999999
 30
5.0
 11
0.0000000000000018
 21
-18.5
 31
5.0
  0
LINE
  5
AE
330
61
100
AcDbEntity
  8
Livello 01
100
AcDbLine
 10
0.0000000000000018
 20
18.5
 30
5.0
 11
0.0000000000000018
 21
20.0
 31
5.0
  0
CIRCLE
  5
AF
330
61
100
AcDbEntity
  8
Livello 01
100
AcDbCircle
 10
0.0
 20
0.0
 30
-0.5
 40
18.5
  0
LINE
  5
B0
330
61
100
AcDbEntity
  8
Livello 01
100
AcDbLine
 10
0.0
 20
18.5
 30
-6.0
 11
0.0
 21
18.5
 31
4.999999999999999
  0
LINE
  5
B1
330
61
100
AcDbEntity
  8
Livello 01
100
AcDbLine
 10
-18.5
 20
0.0
 30
-6.0
 11
-18.5
 21
0.0
 31
4.999999999999999
  0
LINE
  5
B2
330
61
100
AcDbEntity
  8
Livello 01
100
AcDbLine
 10
0.0
 20
-18.5
 30
-6.0
 11
0.0
 21
-18.5
 31
4.999999999999999
  0
CIRCLE
  5
B3
330
61
100
AcDbEntity
  8
Livello 01
100
AcDbCircle
 10
0.0
 20
0.0
 30
-3.0
 40
19.75
  0
LINE
  5
B4
330
61
100
AcDbEntity
  8
Livello 01
100
AcDbLine
 10
0.0
 20
-19.75
 30
-6.0
 11
0.0
 21
-19.75
 31
0.0000000000000007
  0
LINE
  5
B5
330
61
100
AcDbEntity
  8
Livello 01
100
AcDbLine
 10
19.75
 20
0.0
 30
-6.0
 11
19.75
 21
0.0
 31
0.0000000000000007
  0
LINE
  5
B6
330
61
100
AcDbEntity
  8
Livello 01
100
AcDbLine
 10
0.0
 20
19.75
 30
-6.0
 11
0.0
 21
19.75
 31
0.0000000000000007
  0
LINE
  5
B7
330
61
100
AcDbEntity
  8
Livello 01
100
AcDbLine
 10
-19.75
 20
0.0000000000000018
 30
-6.0
 11
-18.5
 21
0.0000000000000018
 31
-6.0
  0
LINE
  5
B8
330
61
100
AcDbEntity
  8
Livello 01
100
AcDbLine
 10
18.5
 20
0.0000000000000018
 30
-6.0
 11
19.75
 21
0.0000000000000018
 31
-6.0
  0
LINE
  5
B9
330
61
100
AcDbEntity
  8
Livello 01
100
AcDbLine
 10
0.0000000000000018
 20
-19.75
 30
-6.0
 11
0.0000000000000018
 21
-18.5
 31
-6.0
  0
LINE
  5
BA
330
61
100
AcDbEntity
  8
Livello 01
100
AcDbLine
 10
0.0000000000000018
 20
18.5
 30
-6.0
 11
0.0000000000000018
 21
19.75
 31
-6.0
  0
ENDBLK
  5
BC
330
61
100
AcDbEntity
  8
0
100
AcDbBlockEnd
  0
BLOCK
  5
101
330
BE
100
AcDbEntity
  8
0
100
AcDbBlockBegin
  2
10BO11360YY
 70
     0
 10
0.0
 20
0.0
 30
0.0
  3
10BO11360YY
  1

  0
CIRCLE
  5
BF
330
BE
100
AcDbEntity
  8
Livello 01
 62
     9
420
 11584734
100
AcDbCircle
 10
-49.9999999999999
 20
0.0
 30
3.1
 40
21.45
  0
ARC
  5
C0
330
BE
100
AcDbEntity
  8
Livello 01
 62
     9
420
 11584734
100
AcDbCircle
 10
49.9999999999999
 20
0.0
 30
-4.0
 40
21.45
210
0.0
220
0.0
230
-1.0
100
AcDbArc
 50
0.000000000000014
 51
180.0
  0
LINE
  5
C1
330
BE
100
AcDbEntity
  8
Livello 01
 62
     9
420
 11584734
100
AcDbLine
 10
-71.4499999999999
 20
0.0
 30
4.0
 11
-71.4499999999999
 21
0.0
 31
3.1
  0
ARC
  5
C2
330
BE
100
AcDbEntity
  8
Livello 01
 62
     9
420
 11584734
100
AcDbCircle
 10
49.9999999999999
 20
0.0
 30
-4.0
 40
21.45
210
0.0
220
0.0
230
-1.0
100
AcDbArc
 50
180.0
 51
0.0
  0
CIRCLE
  5
C3
330
BE
100
AcDbEntity
  8
Livello 01
 62
     9
420
 11584734
100
AcDbCircle
 10
49.9999999999999
 20
0.0
 30
-0.9
 40
21.45
210
0.0
220
0.0
230
-1.0
  0
CIRCLE
  5
C4
330
BE
100
AcDbEntity
  8
Livello 01
 62
     9
420
 11584734
100
AcDbCircle
 10
49.9999999999999
 20
0.0
 30
0.0
 40
21.45
210
0.0
220
0.0
230
-1.0
  0
LINE
  5
C5
330
BE
100
AcDbEntity
  8
Livello 01
 62
     9
420
 11584734
100
AcDbLine
 10
-28.5499999999999
 20
0.0
 30
0.9000000000000001
 11
-28.5499999999999
 21
0.0
 31
-0.0000000000000001
  0
CIRCLE
  5
C6
330
BE
100
AcDbEntity
  8
Livello 01
 62
     9
420
 11584734
100
AcDbCircle
 10
-49.9999999999999
 20
0.0
 30
1.25
 40
22.55
  0
LINE
  5
C7
330
BE
100
AcDbEntity
  8
Livello 01
 62
     9
420
 11584734
100
AcDbLine
 10
-27.4499999999999
 20
0.0
 30
1.25
 11
-27.4499999999999
 21
0.0
 31
2.749999999999999
  0
CIRCLE
  5
C8
330
BE
100
AcDbEntity
  8
Livello 01
 62
     9
420
 11584734
100
AcDbCircle
 10
49.9999999999999
 20
0.0
 30
-1.0
 40
21.55
210
0.0
220
0.0
230
-1.0
  0
ARC
  5
C9
330
BE
100
AcDbEntity
  8
Livello 01
 62
     9
420
 11584734
100
AcDbCircle
 10
-28.4499999999999
 20
0.9
 30
0.0
 40
0.1
210
0.0
220
-1.0
230
0.0
100
AcDbArc
 50
90.0
 51
180.0
  0
CIRCLE
  5
CA
330
BE
100
AcDbEntity
  8
Livello 01
 62
     9
420
 11584734
100
AcDbCircle
 10
-49.9999999999999
 20
0.0
 30
3.0
 40
21.55
  0
ARC
  5
CB
330
BE
100
AcDbEntity
  8
Livello 01
 62
     9
420
 11584734
100
AcDbCircle
 10
-71.5499999999999
 20
3.1
 30
0.0
 40
0.1
210
0.0
220
-1.0
230
0.0
100
AcDbArc
 50
270.0
 51
0.0
  0
CIRCLE
  5
CC
330
BE
100
AcDbEntity
  8
Livello 01
 62
     9
420
 11584734
100
AcDbCircle
 10
-49.9999999999999
 20
0.0
 30
1.0
 40
22.3
  0
ARC
  5
CD
330
BE
100
AcDbEntity
  8
Livello 01
 62
     9
420
 11584734
100
AcDbCircle
 10
-27.6999999999999
 20
1.25
 30
0.0
 40
0.25
210
0.0
220
-1.0
230
0.0
100
AcDbArc
 50
270.0
 51
0.0
  0
ARC
  5
CE
330
BE
100
AcDbEntity
  8
Livello 01
 62
     9
420
 11584734
100
AcDbCircle
 10
49.9999999999999
 20
0.0
 30
-2.75
 40
22.55
210
0.0
220
0.0
230
-1.0
100
AcDbArc
 50
0.0
 51
180.0
  0
CIRCLE
  5
CF
330
BE
100
AcDbEntity
  8
Livello 01
 62
     9
420
 11584734
100
AcDbCircle
 10
49.9999999999999
 20
0.0
 30
-3.0
 40
22.3
210
0.0
220
0.0
230
-1.0
  0
ARC
  5
D0
330
BE
100
AcDbEntity
  8
Livello 01
 62
     9
420
 11584734
100
AcDbCircle
 10
-72.2999999999999
 20
2.75
 30
0.0
 40
0.25
210
0.0
220
-1.0
230
0.0
100
AcDbArc
 50
90.0
 51
180.0
  0
ARC
  5
D1
330
BE
100
AcDbEntity
  8
Livello 01
 62
     9
420
 11584734
100
AcDbCircle
 10
49.9999999999999
 20
0.0
 30
-2.75
 40
22.55
210
0.0
220
0.0
230
-1.0
100
AcDbArc
 50
180.0
 51
0.0
  0
CIRCLE
  5
D2
330
BE
100
AcDbEntity
  8
Livello 01
 62
     9
420
 11584734
100
AcDbCircle
 10
-49.9999999999999
 20
0.0
 30
4.0
 40
32.5
  0
CIRCLE
  5
D3
330
BE
100
AcDbEntity
  8
Livello 01
 62
     9
420
 11584734
100
AcDbCircle
 10
-49.9999999999999
 20
0.0
 30
0.0
 40
32.5
  0
LINE
  5
D4
330
BE
100
AcDbEntity
  8
Livello 01
 62
     9
420
 11584734
100
AcDbLine
 10
-17.4999999999999
 20
0.0
 30
4.0
 11
-17.4999999999999
 21
0.0
 31
0.0000000000000009
  0
LINE
  5
D5
330
BE
100
AcDbEntity
  8
Livello 01
 62
     9
420
 11584734
100
AcDbLine
 10
-82.4999999999999
 20
0.0
 30
4.0
 11
-71.4499999999999
 21
0.0
 31
4.0
  0
LINE
  5
D6
330
BE
100
AcDbEntity
  8
Livello 01
 62
     9
420
 11584734
100
AcDbLine
 10
-28.5499999999999
 20
0.0
 30
4.0
 11
-17.4999999999999
 21
0.0
 31
4.0
  0
LINE
  5
D7
330
BE
100
AcDbEntity
  8
Livello 01
 62
     9
420
 11584734
100
AcDbLine
 10
-49.9999999999999
 20
-32.5
 30
4.0
 11
-49.9999999999999
 21
-21.45
 31
4.0
  0
LINE
  5
D8
330
BE
100
AcDbEntity
  8
Livello 01
 62
     9
420
 11584734
100
AcDbLine
 10
-49.9999999999999
 20
21.45000000000001
 30
4.0
 11
-49.9999999999999
 21
32.49999999999999
 31
4.0
  0
LINE
  5
D9
330
BE
100
AcDbEntity
  8
Livello 01
 62
     9
420
 11584734
100
AcDbLine
 10
-82.4999999999999
 20
0.0
 30
0.0
 11
-71.4499999999999
 21
0.0
 31
0.0
  0
LINE
  5
DA
330
BE
100
AcDbEntity
  8
Livello 01
 62
     9
420
 11584734
100
AcDbLine
 10
-28.5499999999999
 20
0.0
 30
0.0
 11
-17.4999999999999
 21
0.0
 31
0.0
  0
LINE
  5
DB
330
BE
100
AcDbEntity
  8
Livello 01
 62
     9
420
 11584734
100
AcDbLine
 10
-49.9999999999999
 20
-32.5
 30
0.0
 11
-49.9999999999999
 21
-21.45
 31
0.0
  0
LINE
  5
DC
330
BE
100
AcDbEntity
  8
Livello 01
 62
     9
420
 11584734
100
AcDbLine
 10
-49.9999999999999
 20
21.45
 30
0.0
 11
-49.9999999999999
 21
32.50000000000001
 31
0.0
  0
CIRCLE
  5
DD
330
BE
100
AcDbEntity
  8
Livello 01
 62
     9
420
 11584734
100
AcDbCircle
 10
49.9999999999999
 20
0.0
 30
-3.55
 40
21.45
210
0.0
220
0.0
230
-1.0
  0
LINE
  5
DE
330
BE
100
AcDbEntity
  8
Livello 01
 62
     9
420
 11584734
100
AcDbLine
 10
-49.9999999999999
 20
21.45
 30
4.0
 11
-49.9999999999999
 21
21.45
 31
3.1
  0
LINE
  5
DF
330
BE
100
AcDbEntity
  8
Livello 01
 62
     9
420
 11584734
100
AcDbLine
 10
-28.5499999999999
 20
0.0
 30
4.0
 11
-28.5499999999999
 21
0.0
 31
3.1
  0
LINE
  5
E0
330
BE
100
AcDbEntity
  8
Livello 01
 62
     9
420
 11584734
100
AcDbLine
 10
-49.9999999999999
 20
-21.45
 30
4.0
 11
-49.9999999999999
 21
-21.45
 31
3.1
  0
CIRCLE
  5
E1
330
BE
100
AcDbEntity
  8
Livello 01
 62
     9
420
 11584734
100
AcDbCircle
 10
49.9999999999999
 20
0.0
 30
-0.45
 40
21.45
210
0.0
220
0.0
230
-1.0
  0
LINE
  5
E2
330
BE
100
AcDbEntity
  8
Livello 01
 62
     9
420
 11584734
100
AcDbLine
 10
-49.9999999999999
 20
-21.45
 30
0.9000000000000001
 11
-49.9999999999999
 21
-21.45
 31
-0.0000000000000002
  0
LINE
  5
E3
330
BE
100
AcDbEntity
  8
Livello 01
 62
     9
420
 11584734
100
AcDbLine
 10
-71.4499999999999
 20
0.0
 30
0.9000000000000001
 11
-71.4499999999999
 21
0.0
 31
-0.0000000000000002
  0
LINE
  5
E4
330
BE
100
AcDbEntity
  8
Livello 01
 62
     9
420
 11584734
100
AcDbLine
 10
-49.9999999999999
 20
21.45
 30
0.9000000000000001
 11
-49.9999999999999
 21
21.45
 31
-0.0000000000000002
  0
CIRCLE
  5
E5
330
BE
100
AcDbEntity
  8
Livello 01
 62
     9
420
 11584734
100
AcDbCircle
 10
-49.9999999999999
 20
0.0
 30
2.0
 40
22.55
  0
LINE
  5
E6
330
BE
100
AcDbEntity
  8
Livello 01
 62
     9
420
 11584734
100
AcDbLine
 10
-49.9999999999999
 20
22.55
 30
1.25
 11
-49.9999999999999
 21
22.55
 31
2.75
  0
LINE
  5
E7
330
BE
100
AcDbEntity
  8
Livello 01
 62
     9
420
 11584734
100
AcDbLine
 10
-72.5499999999999
 20
0.0
 30
1.25
 11
-72.5499999999999
 21
0.0
 31
2.75
  0
LINE
  5
E8
330
BE
100
AcDbEntity
  8
Livello 01
 62
     9
420
 11584734
100
AcDbLine
 10
-49.9999999999999
 20
-22.55
 30
1.25
 11
-49.9999999999999
 21
-22.55
 31
2.75
  0
LINE
  5
E9
330
BE
100
AcDbEntity
  8
Livello 01
 62
     9
420
 11584734
100
AcDbLine
 10
-27.6999999999999
 20
-0.0000000000000036
 30
3.0
 11
-28.4499999999999
 21
-0.0000000000000036
 31
3.0
  0
LINE
  5
EA
330
BE
100
AcDbEntity
  8
Livello 01
 62
     9
420
 11584734
100
AcDbLine
 10
-71.54999999999991
 20
-0.0000000000000036
 30
3.0
 11
-72.29999999999988
 21
-0.0000000000000036
 31
3.0
  0
LINE
  5
EB
330
BE
100
AcDbEntity
  8
Livello 01
 62
     9
420
 11584734
100
AcDbLine
 10
-49.99999999999989
 20
-22.3
 30
3.0
 11
-49.99999999999989
 21
-21.55
 31
3.0
  0
LINE
  5
EC
330
BE
100
AcDbEntity
  8
Livello 01
 62
     9
420
 11584734
100
AcDbLine
 10
-49.99999999999989
 20
21.55
 30
3.0
 11
-49.99999999999989
 21
22.29999999999999
 31
3.0
  0
LINE
  5
ED
330
BE
100
AcDbEntity
  8
Livello 01
 62
     9
420
 11584734
100
AcDbLine
 10
-72.2999999999999
 20
-0.0000000000000036
 30
1.0
 11
-71.5499999999999
 21
-0.0000000000000036
 31
1.0
  0
LINE
  5
EE
330
BE
100
AcDbEntity
  8
Livello 01
 62
     9
420
 11584734
100
AcDbLine
 10
-28.4499999999999
 20
-0.0000000000000036
 30
1.0
 11
-27.6999999999999
 21
-0.0000000000000036
 31
1.0
  0
LINE
  5
EF
330
BE
100
AcDbEntity
  8
Livello 01
 62
     9
420
 11584734
100
AcDbLine
 10
-49.9999999999999
 20
-22.3
 30
1.0
 11
-49.9999999999999
 21
-21.55
 31
1.0
  0
LINE
  5
F0
330
BE
100
AcDbEntity
  8
Livello 01
 62
     9
420
 11584734
100
AcDbLine
 10
-49.9999999999999
 20
21.55
 30
1.0
 11
-49.9999999999999
 21
22.3
 31
1.0
  0
ARC
  5
F1
330
BE
100
AcDbEntity
  8
Livello 01
 62
     9
420
 11584734
100
AcDbCircle
 10
21.55
 20
0.9
 30
-49.9999999999999
 40
0.1
210
1.0
220
0.0
230
0.0
100
AcDbArc
 50
90.0
 51
180.0
  0
ARC
  5
F2
330
BE
100
AcDbEntity
  8
Livello 01
 62
     9
420
 11584734
100
AcDbCircle
 10
71.5499999999999
 20
0.9
 30
0.0
 40
0.1
210
0.0
220
1.0
230
0.0
100
AcDbArc
 50
90.0
 51
180.0
  0
ARC
  5
F3
330
BE
100
AcDbEntity
  8
Livello 01
 62
     9
420
 11584734
100
AcDbCircle
 10
21.55
 20
0.9
 30
49.9999999999999
 40
0.1
210
-1.0
220
0.0
230
0.0
100
AcDbArc
 50
90.0
 51
180.0
  0
ARC
  5
F4
330
BE
100
AcDbEntity
  8
Livello 01
 62
     9
420
 11584734
100
AcDbCircle
 10
-21.55
 20
3.1
 30
49.9999999999999
 40
0.1
210
-1.0
220
0.0
230
0.0
100
AcDbArc
 50
270.0
 51
0.0
  0
ARC
  5
F5
330
BE
100
AcDbEntity
  8
Livello 01
 62
     9
420
 11584734
100
AcDbCircle
 10
28.4499999999999
 20
3.1
 30
0.0
 40
0.1
210
0.0
220
1.0
230
0.0
100
AcDbArc
 50
270.0
 51
0.0
  0
ARC
  5
F6
330
BE
100
AcDbEntity
  8
Livello 01
 62
     9
420
 11584734
100
AcDbCircle
 10
-21.55
 20
3.1
 30
-49.9999999999999
 40
0.1
210
1.0
220
0.0
230
0.0
100
AcDbArc
 50
270.0
 51
0.0
  0
ARC
  5
F7
330
BE
100
AcDbEntity
  8
Livello 01
 62
     9
420
 11584734
100
AcDbCircle
 10
22.3
 20
1.25
 30
-49.9999999999999
 40
0.25
210
1.0
220
0.0
230
0.0
100
AcDbArc
 50
270.0
 51
0.0
  0
ARC
  5
F8
330
BE
100
AcDbEntity
  8
Livello 01
 62
     9
420
 11584734
100
AcDbCircle
 10
72.2999999999999
 20
1.25
 30
0.0
 40
0.25
210
0.0
220
1.0
230
0.0
100
AcDbArc
 50
270.0
 51
0.0
  0
ARC
  5
F9
330
BE
100
AcDbEntity
  8
Livello 01
 62
     9
420
 11584734
100
AcDbCircle
 10
22.3
 20
1.25
 30
49.9999999999999
 40
0.25
210
-1.0
220
0.0
230
0.0
100
AcDbArc
 50
270.0
 51
0.0
  0
ARC
  5
FA
330
BE
100
AcDbEntity
  8
Livello 01
 62
     9
420
 11584734
100
AcDbCircle
 10
-22.3
 20
2.75
 30
49.9999999999999
 40
0.25
210
-1.0
220
0.0
230
0.0
100
AcDbArc
 50
90.0
 51
180.0
  0
ARC
  5
FB
330
BE
100
AcDbEntity
  8
Livello 01
 62
     9
420
 11584734
100
AcDbCircle
 10
27.6999999999999
 20
2.75
 30
0.0
 40
0.25
210
0.0
220
1.0
230
0.0
100
AcDbArc
 50
90.0
 51
180.0
  0
ARC
  5
FC
330
BE
100
AcDbEntity
  8
Livello 01
 62
     9
420
 11584734
100
AcDbCircle
 10
-22.3
 20
2.75
 30
-49.9999999999999
 40
0.25
210
1.0
220
0.0
230
0.0
100
AcDbArc
 50
90.0
 51
180.0
  0
CIRCLE
  5
FD
330
BE
100
AcDbEntity
  8
Livello 01
 62
     9
420
 11584734
100
AcDbCircle
 10
49.9999999999999
 20
0.0
 30
-2.0
 40
32.5
210
0.0
220
0.0
230
-1.0
  0
LINE
  5
FE
330
BE
100
AcDbEntity
  8
Livello 01
 62
     9
420
 11584734
100
AcDbLine
 10
-49.9999999999999
 20
-32.5
 30
3.999999999999999
 11
-49.9999999999999
 21
-32.5
 31
0.0000000000000011
  0
LINE
  5
FF
330
BE
100
AcDbEntity
  8
Livello 01
 62
     9
420
 11584734
100
AcDbLine
 10
-82.4999999999999
 20
0.0
 30
3.999999999999999
 11
-82.4999999999999
 21
0.0
 31
0.0000000000000011
  0
LINE
  5
100
330
BE
100
AcDbEntity
  8
Livello 01
 62
     9
420
 11584734
100
AcDbLine
 10
-49.9999999999999
 20
32.5
 30
3.999999999999999
 11
-49.9999999999999
 21
32.5
 31
0.0000000000000011
  0
ENDBLK
  5
102
330
BE
100
AcDbEntity
  8
0
100
AcDbBlockEnd
  0
BLOCK
  5
10D
330
104
100
AcDbEntity
  8
0
100
AcDbBlockBegin
  2
10OR19860YY
 70
     0
 10
0.0
 20
0.0
 30
0.0
  3
10OR19860YY
  1

  0
CIRCLE
  5
105
330
104
100
AcDbEntity
  8
Livello 01
 62
   250
420
  3355443
100
AcDbCircle
 10
0.0
 20
0.0
 30
-0.75
 40
22.5
210
0.0
220
0.0
230
-1.0
  0
CIRCLE
  5
106
330
104
100
AcDbEntity
  8
Livello 01
 62
   250
420
  3355443
100
AcDbCircle
 10
-21.75
 20
0.75
 30
0.0
 40
0.75
210
0.0
220
-1.0
230
0.0
  0
CIRCLE
  5
107
330
104
100
AcDbEntity
  8
Livello 01
 62
   250
420
  3355443
100
AcDbCircle
 10
0.0
 20
0.0
 30
0.0
 40
21.75
210
0.0
220
0.0
230
-1.0
  0
CIRCLE
  5
108
330
104
100
AcDbEntity
  8
Livello 01
 62
   250
420
  3355443
100
AcDbCircle
 10
0.0
 20
0.0
 30
-0.75
 40
21.0
210
0.0
220
0.0
230
-1.0
  0
CIRCLE
  5
109
330
104
100
AcDbEntity
  8
Livello 01
 62
   250
420
  3355443
100
AcDbCircle
 10
0.0
 20
0.0
 30
-1.5
 40
21.75
210
0.0
220
0.0
230
-1.0
  0
CIRCLE
  5
10A
330
104
100
AcDbEntity
  8
Livello 01
 62
   250
420
  3355443
100
AcDbCircle
 10
-21.75
 20
0.75
 30
0.0
 40
0.75
210
-1.0
220
0.0
230
0.0
  0
CIRCLE
  5
10B
330
104
100
AcDbEntity
  8
Livello 01
 62
   250
420
  3355443
100
AcDbCircle
 10
-21.75
 20
0.75
 30
0.0
 40
0.75
210
0.0
220
1.0
230
0.0
  0
CIRCLE
  5
10C
330
104
100
AcDbEntity
  8
Livello 01
 62
   250
420
  3355443
100
AcDbCircle
 10
-21.75
 20
0.75
 30
0.0
 40
0.75
210
1.0
220
0.0
230
0.0
  0
ENDBLK
  5
10E
330
104
100
AcDbEntity
  8
0
100
AcDbBlockEnd
  0
BLOCK
  5
19D
330
110
100
AcDbEntity
  8
0
100
AcDbBlockBegin
  2
10PL14760YY
 70
     0
 10
0.0
 20
0.0
 30
0.0
  3
10PL14760YY
  1

  0
SPLINE
  5
111
330
110
100
AcDbEntity
  8
Livello 01
100
AcDbSpline
210
0.0
220
0.0
230
1.0
 70
    24
 71
     2
 72
     6
 73
     3
 74
     0
 42
0.0000000001
 43
0.0000000001
 40
0.0
 40
0.0
 40
0.0
 40
7.5
 40
7.5
 40
7.5
 10
3.5
 20
3.57071421427142
 30
62.9
 10
3.5
 20
3.57071421427142
 30
59.15
 10
3.5
 20
3.57071421427142
 30
55.4
  0
ARC
  5
112
330
110
100
AcDbEntity
  8
Livello 01
100
AcDbCircle
 10
0.0000000000002878
 20
0.0000000000003801
 30
55.4
 40
4.999999999999523
100
AcDbArc
 50
45.57299599919357
 51
53.130102354156
  0
SPLINE
  5
113
330
110
100
AcDbEntity
  8
Livello 01
100
AcDbSpline
210
0.0
220
0.0
230
1.0
 70
    24
 71
     2
 72
     6
 73
     3
 74
     0
 42
0.0000000001
 43
0.0000000001
 40
0.0
 40
0.0
 40
0.0
 40
7.5
 40
7.5
 40
7.5
 10
3.0
 20
4.0
 30
55.4
 10
3.0
 20
4.0
 30
59.15
 10
3.0
 20
4.0
 30
62.9
  0
ARC
  5
114
330
110
100
AcDbEntity
  8
Livello 01
100
AcDbCircle
 10
-0.0000000000002878
 20
0.0000000000003801
 30
-62.9
 40
4.999999999999523
210
0.0
220
0.0
230
-1.0
100
AcDbArc
 50
126.869897645844
 51
134.4270040008064
  0
SPLINE
  5
115
330
110
100
AcDbEntity
  8
Livello 01
100
AcDbSpline
210
0.0
220
0.0
230
1.0
 70
    24
 71
     2
 72
     6
 73
     3
 74
     0
 42
0.0000000001
 43
0.0000000001
 40
0.0
 40
0.0
 40
0.0
 40
7.5
 40
7.5
 40
7.5
 10
3.5
 20
-3.57071421427142
 30
55.4
 10
3.5
 20
-3.57071421427142
 30
59.15
 10
3.5
 20
-3.57071421427142
 30
62.9
  0
ARC
  5
116
330
110
100
AcDbEntity
  8
Livello 01
100
AcDbCircle
 10
-0.0000000000005471
 20
-0.0000000000006786
 30
-62.9
 40
4.99999999999913
210
0.0
220
0.0
230
-1.0
100
AcDbArc
 50
225.5729959991933
 51
233.1301023541563
  0
SPLINE
  5
117
330
110
100
AcDbEntity
  8
Livello 01
100
AcDbSpline
210
0.0
220
0.0
230
1.0
 70
    24
 71
     2
 72
     6
 73
     3
 74
     0
 42
0.0000000001
 43
0.0000000001
 40
0.0
 40
0.0
 40
0.0
 40
7.5
 40
7.5
 40
7.5
 10
3.0
 20
-4.0
 30
62.9
 10
3.0
 20
-4.0
 30
59.15
 10
3.0
 20
-4.0
 30
55.4
  0
ARC
  5
118
330
110
100
AcDbEntity
  8
Livello 01
100
AcDbCircle
 10
0.0000000000005471
 20
-0.0000000000006786
 30
55.4
 40
4.99999999999913
100
AcDbArc
 50
306.8698976458437
 51
314.4270040008067
  0
SPLINE
  5
119
330
110
100
AcDbEntity
  8
Livello 01
100
AcDbSpline
210
0.0
220
0.0
230
1.0
 70
    24
 71
     2
 72
     6
 73
     3
 74
     0
 42
0.0000000001
 43
0.0000000001
 40
0.0
 40
0.0
 40
0.0
 40
7.5
 40
7.5
 40
7.5
 10
-3.0
 20
-4.0
 30
55.4
 10
-3.0
 20
-4.0
 30
59.15
 10
-3.0
 20
-4.0
 30
62.9
  0
ARC
  5
11A
330
110
100
AcDbEntity
  8
Livello 01
100
AcDbCircle
 10
0.0000000000002878
 20
-0.0000000000003801
 30
-62.9
 40
4.999999999999523
210
0.0
220
0.0
230
-1.0
100
AcDbArc
 50
306.869897645844
 51
314.4270040008064
  0
SPLINE
  5
11B
330
110
100
AcDbEntity
  8
Livello 01
100
AcDbSpline
210
0.0
220
0.0
230
1.0
 70
    24
 71
     2
 72
     6
 73
     3
 74
     0
 42
0.0000000001
 43
0.0000000001
 40
0.0
 40
0.0
 40
0.0
 40
7.5
 40
7.5
 40
7.5
 10
-3.5
 20
-3.57071421427142
 30
62.9
 10
-3.5
 20
-3.57071421427142
 30
59.15
 10
-3.5
 20
-3.57071421427142
 30
55.4
  0
ARC
  5
11C
330
110
100
AcDbEntity
  8
Livello 01
100
AcDbCircle
 10
-0.0000000000002878
 20
-0.0000000000003801
 30
55.4
 40
4.999999999999523
100
AcDbArc
 50
225.5729959991936
 51
233.130102354156
  0
ARC
  5
11D
330
110
100
AcDbEntity
  8
Livello 01
100
AcDbCircle
 10
0.0
 20
0.0
 30
2.00000000000001
 40
7.49999999999999
100
AcDbArc
 50
90.0
 51
270.0
  0
LINE
  5
11E
330
110
100
AcDbEntity
  8
Livello 01
100
AcDbLine
 10
0.0
 20
7.49999999999999
 30
54.4
 11
0.0
 21
7.49999999999999
 31
2.000000000000009
  0
ARC
  5
11F
330
110
100
AcDbEntity
  8
Livello 01
100
AcDbCircle
 10
0.0
 20
0.0
 30
2.00000000000001
 40
7.49999999999999
100
AcDbArc
 50
270.0
 51
89.99999999999999
  0
SPLINE
  5
120
330
110
100
AcDbEntity
  8
Livello 01
100
AcDbSpline
210
0.0
220
0.0
230
1.0
 70
    24
 71
     2
 72
     6
 73
     3
 74
     0
 42
0.0000000001
 43
0.0000000001
 40
0.0
 40
0.0
 40
0.0
 40
7.14142842854284
 40
7.14142842854284
 40
7.14142842854284
 10
3.5
 20
3.57071421427142
 30
55.4
 10
3.5
 20
0.0
 30
55.4
 10
3.5
 20
-3.57071421427142
 30
55.4
  0
SPLINE
  5
121
330
110
100
AcDbEntity
  8
Livello 01
100
AcDbSpline
210
0.0
220
0.0
230
1.0
 70
    24
 71
     2
 72
     6
 73
     3
 74
     0
 42
0.0000000001
 43
0.0000000001
 40
0.0
 40
0.0
 40
0.0
 40
6.0
 40
6.0
 40
6.0
 10
3.0
 20
-4.0
 30
55.4
 10
0.0
 20
-4.0
 30
55.4
 10
-3.0
 20
-4.0
 30
55.4
  0
SPLINE
  5
122
330
110
100
AcDbEntity
  8
Livello 01
100
AcDbSpline
210
0.0
220
0.0
230
1.0
 70
    24
 71
     2
 72
     6
 73
     3
 74
     0
 42
0.0000000001
 43
0.0000000001
 40
0.0
 40
0.0
 40
0.0
 40
7.14142842854284
 40
7.14142842854284
 40
7.14142842854284
 10
-3.5
 20
-3.57071421427142
 30
55.4
 10
-3.5
 20
0.0
 30
55.4
 10
-3.5
 20
3.57071421427142
 30
55.4
  0
SPLINE
  5
123
330
110
100
AcDbEntity
  8
Livello 01
100
AcDbSpline
210
0.0
220
0.0
230
1.0
 70
    24
 71
     2
 72
     6
 73
     3
 74
     0
 42
0.0000000001
 43
0.0000000001
 40
0.0
 40
0.0
 40
0.0
 40
6.0
 40
6.0
 40
6.0
 10
-3.0
 20
4.0
 30
55.4
 10
0.0
 20
4.0
 30
55.4
 10
3.0
 20
4.0
 30
55.4
  0
SPLINE
  5
124
330
110
100
AcDbEntity
  8
Livello 01
100
AcDbSpline
210
0.0
220
0.0
230
1.0
 70
    24
 71
     2
 72
     6
 73
     3
 74
     0
 42
0.0000000001
 43
0.0000000001
 40
0.0
 40
0.0
 40
0.0
 40
7.5
 40
7.5
 40
7.5
 10
-3.5
 20
3.57071421427142
 30
55.4
 10
-3.5
 20
3.57071421427142
 30
59.15
 10
-3.5
 20
3.57071421427142
 30
62.9
  0
ARC
  5
125
330
110
100
AcDbEntity
  8
Livello 01
100
AcDbCircle
 10
0.0000000000005471
 20
0.0000000000006786
 30
-62.9
 40
4.99999999999913
210
0.0
220
0.0
230
-1.0
100
AcDbArc
 50
45.57299599919329
 51
53.13010235415632
  0
SPLINE
  5
126
330
110
100
AcDbEntity
  8
Livello 01
100
AcDbSpline
210
0.0
220
0.0
230
1.0
 70
    24
 71
     2
 72
     6
 73
     3
 74
     0
 42
0.0000000001
 43
0.0000000001
 40
0.0
 40
0.0
 40
0.0
 40
7.5
 40
7.5
 40
7.5
 10
-3.0
 20
4.0
 30
62.9
 10
-3.0
 20
4.0
 30
59.15
 10
-3.0
 20
4.0
 30
55.4
  0
ARC
  5
127
330
110
100
AcDbEntity
  8
Livello 01
100
AcDbCircle
 10
0.0000000000005471
 20
0.0000000000006786
 30
-55.4
 40
4.99999999999913
210
0.0
220
0.0
230
-1.0
100
AcDbArc
 50
45.57299599919329
 51
53.13010235415632
  0
SPLINE
  5
128
330
110
100
AcDbEntity
  8
Livello 01
100
AcDbSpline
210
0.0
220
0.0
230
1.0
 70
    24
 71
     2
 72
     6
 73
     3
 74
     0
 42
0.0000000001
 43
0.0000000001
 40
0.0
 40
0.0
 40
0.0
 40
7.14142842854284
 40
7.14142842854284
 40
7.14142842854284
 10
3.5
 20
-3.57071421427142
 30
62.9
 10
3.5
 20
0.0
 30
62.9
 10
3.5
 20
3.57071421427142
 30
62.9
  0
SPLINE
  5
129
330
110
100
AcDbEntity
  8
Livello 01
100
AcDbSpline
210
0.0
220
0.0
230
1.0
 70
    24
 71
     2
 72
     6
 73
     3
 74
     0
 42
0.0000000001
 43
0.0000000001
 40
0.0
 40
0.0
 40
0.0
 40
6.0
 40
6.0
 40
6.0
 10
3.0
 20
4.0
 30
62.9
 10
0.0
 20
4.0
 30
62.9
 10
-3.0
 20
4.0
 30
62.9
  0
SPLINE
  5
12A
330
110
100
AcDbEntity
  8
Livello 01
100
AcDbSpline
210
0.0
220
0.0
230
1.0
 70
    24
 71
     2
 72
     6
 73
     3
 74
     0
 42
0.0000000001
 43
0.0000000001
 40
0.0
 40
0.0
 40
0.0
 40
7.14142842854284
 40
7.14142842854284
 40
7.14142842854284
 10
-3.5
 20
3.57071421427142
 30
62.9
 10
-3.5
 20
0.0
 30
62.9
 10
-3.5
 20
-3.57071421427142
 30
62.9
  0
SPLINE
  5
12B
330
110
100
AcDbEntity
  8
Livello 01
100
AcDbSpline
210
0.0
220
0.0
230
1.0
 70
    24
 71
     2
 72
     6
 73
     3
 74
     0
 42
0.0000000001
 43
0.0000000001
 40
0.0
 40
0.0
 40
0.0
 40
6.0
 40
6.0
 40
6.0
 10
-3.0
 20
-4.0
 30
62.9
 10
0.0
 20
-4.0
 30
62.9
 10
3.0
 20
-4.0
 30
62.9
  0
ARC
  5
12C
330
110
100
AcDbEntity
  8
Livello 01
100
AcDbCircle
 10
0.0
 20
0.0
 30
-2.0
 40
5.5
210
0.0
220
0.0
230
-1.0
100
AcDbArc
 50
270.0
 51
0.0
  0
ARC
  5
12D
330
110
100
AcDbEntity
  8
Livello 01
100
AcDbCircle
 10
0.0
 20
0.0
 30
5.0
 40
5.5
100
AcDbArc
 50
89.99999999999999
 51
180.0
  0
LINE
  5
12E
330
110
100
AcDbEntity
  8
Livello 01
100
AcDbLine
 10
-5.5
 20
0.0
 30
5.0
 11
-5.5
 21
0.0
 31
2.0
  0
ARC
  5
12F
330
110
100
AcDbEntity
  8
Livello 01
100
AcDbCircle
 10
0.0
 20
0.0
 30
-2.0
 40
5.5
210
0.0
220
0.0
230
-1.0
100
AcDbArc
 50
0.000000000000014
 51
270.0
  0
ARC
  5
130
330
110
100
AcDbEntity
  8
Livello 01
100
AcDbCircle
 10
0.0
 20
0.0
 30
5.0
 40
5.5
100
AcDbArc
 50
180.0
 51
89.99999999999999
  0
CIRCLE
  5
131
330
110
100
AcDbEntity
  8
Livello 01
100
AcDbCircle
 10
0.0
 20
0.0
 30
-16.5
 40
3.85
210
0.0
220
0.0
230
-1.0
  0
CIRCLE
  5
132
330
110
100
AcDbEntity
  8
Livello 01
100
AcDbCircle
 10
0.0
 20
0.0
 30
-5.0
 40
3.85
210
0.0
220
0.0
230
-1.0
  0
LINE
  5
133
330
110
100
AcDbEntity
  8
Livello 01
100
AcDbLine
 10
0.0
 20
3.85
 30
16.5
 11
0.0
 21
3.85
 31
5.000000000000002
  0
SPLINE
  5
134
330
110
100
AcDbEntity
  8
Livello 01
100
AcDbSpline
 70
     3
 71
     3
 72
    15
 73
    11
 74
     0
 42
0.0000000001
 43
0.0000000001
 40
-10.97615783546205
 40
-10.97615783546205
 40
-10.97615783546205
 40
-10.97615783546205
 40
-9.604138106029277
 40
-8.232118376596524
 40
-6.860098647163774
 40
-5.488078917731013
 40
-4.116059188298262
 40
-2.744039458865511
 40
-1.37201972943275
 40
0.0
 40
0.0
 40
0.0
 40
0.0
 10
7.499999999999989
 20
0.0000000000000001
 30
8.379000000000008
 10
7.499976333064246
 20
-0.4236724282925112
 30
8.379048866198952
 10
7.41221459130954
 20
-1.27156029530162
 30
8.73089736628165
 10
7.27787522340621
 20
-1.79636674112154
 30
10.0009848891014
 10
7.41265856043697
 20
-1.2689706707701
 30
11.2715077430702
 10
7.54374014798869
 20
0.0006401260594427
 30
11.7960112091501
 10
7.41238066934195
 20
1.27041565808816
 30
11.2704465955319
 10
7.27790918013166
 20
1.79627707017758
 30
9.99826345715104
 10
7.412356592924
 20
1.27047427445342
 30
8.73060416908799
 10
7.500023666935733
 20
0.423672428292506
 30
8.378951133801063
 10
7.499999999999989
 20
0.0000000000000006
 30
8.379000000000005
  0
SPLINE
  5
135
330
110
100
AcDbEntity
  8
Livello 01
100
AcDbSpline
 70
     3
 71
     3
 72
    15
 73
    11
 74
     0
 42
0.0000000001
 43
0.0000000001
 40
0.0
 40
0.0
 40
0.0
 40
0.0
 40
1.390153943831472
 40
2.780307887662944
 40
4.170461831494416
 40
5.560615775325888
 40
6.95076971915736
 40
8.340923662988832
 40
9.731077606820305
 40
11.12123155065178
 40
11.12123155065178
 40
11.12123155065178
 40
11.12123155065178
 10
3.849999999999999
 20
-0.0000000000000011
 30
8.379000000000005
 10
3.85004378099222
 20
-0.423818516466156
 30
8.379093416859813
 10
3.6794633283127
 20
-1.27089997463794
 30
8.73152313729386
 10
3.39846966087781
 20
-1.79612408528869
 30
9.99639060347881
 10
3.67934501478332
 20
-1.27059504968046
 30
11.2699545590856
 10
3.93522166435021
 20
-0.0033741515478041
 30
11.7965508095627
 10
3.67976465619122
 20
1.27106748431892
 30
11.2698334822687
 10
3.3984299383463
 20
1.79572923121342
 30
10.0021312817271
 10
3.679200642359367
 20
1.272011124158995
 30
8.730962636135022
 10
3.849956219007776
 20
0.4238185164661585
 30
8.3789065831402
 10
3.849999999999999
 20
0.0000000000000007
 30
8.379000000000005
  0
LINE
  5
136
330
110
100
AcDbEntity
  8
Livello 01
100
AcDbLine
 10
7.49999999999999
 20
0.0000000000000006
 30
8.379
 11
3.849999999999998
 21
0.0000000000000006
 31
8.379
  0
SPLINE
  5
137
330
110
100
AcDbEntity
  8
Livello 01
100
AcDbSpline
 70
     3
 71
     3
 72
    15
 73
    11
 74
     0
 42
0.0000000001
 43
0.0000000001
 40
-10.97615783546204
 40
-10.97615783546204
 40
-10.97615783546204
 40
-10.97615783546204
 40
-9.604138106029295
 40
-8.232118376596533
 40
-6.860098647163784
 40
-5.488078917731021
 40
-4.116059188298271
 40
-2.74403945886551
 40
-1.37201972943276
 40
0.0
 40
0.0
 40
0.0
 40
0.0
 10
-7.499999999999993
 20
-0.0000000000000113
 30
11.621
 10
-7.49997633306425
 20
-0.4236724282925122
 30
11.62095113380106
 10
-7.41221459130955
 20
-1.27156029530162
 30
11.2691026337184
 10
-7.27787522340622
 20
-1.79636674112154
 30
9.99901511089858
 10
-7.41265856043696
 20
-1.2689706707701
 30
8.72849225692978
 10
-7.54374014798869
 20
0.0006401260594424
 30
8.20398879084995
 10
-7.41238066934195
 20
1.27041565808816
 30
8.72955340446808
 10
-7.27790918013167
 20
1.79627707017758
 30
10.001736542849
 10
-7.412356592924
 20
1.27047427445342
 30
11.269395830912
 10
-7.500023666935733
 20
0.4236724282925062
 30
11.62104886619893
 10
-7.499999999999991
 20
-0.0000000000000019
 30
11.621
  0
SPLINE
  5
138
330
110
100
AcDbEntity
  8
Livello 01
100
AcDbSpline
 70
     3
 71
     3
 72
    15
 73
    11
 74
     0
 42
0.0000000001
 43
0.0000000001
 40
0.0
 40
0.0
 40
0.0
 40
0.0
 40
1.390153943831473
 40
2.780307887662945
 40
4.170461831494418
 40
5.560615775325891
 40
6.950769719157363
 40
8.340923662988835
 40
9.731077606820309
 40
11.12123155065179
 40
11.12123155065179
 40
11.12123155065179
 40
11.12123155065179
 10
-3.849999999999999
 20
-0.0000000000000011
 30
11.621
 10
-3.85004378099222
 20
-0.423818516466156
 30
11.6209065831402
 10
-3.6794633283127
 20
-1.27089997463794
 30
11.2684768627062
 10
-3.39846966087781
 20
-1.79612408528869
 30
10.0036093965212
 10
-3.67934501478332
 20
-1.27059504968046
 30
8.73004544091446
 10
-3.93522166435021
 20
-0.0033741515478041
 30
8.20344919043727
 10
-3.67976465619122
 20
1.27106748431892
 30
8.73016651773135
 10
-3.3984299383463
 20
1.79572923121342
 30
9.99786871827289
 10
-3.679200642359367
 20
1.272011124158995
 30
11.26903736386499
 10
-3.849956219007776
 20
0.4238185164661573
 30
11.6210934168598
 10
-3.849999999999999
 20
-0.0000000000000009
 30
11.621
  0
LINE
  5
139
330
110
100
AcDbEntity
  8
Livello 01
100
AcDbLine
 10
-3.849999999999999
 20
-0.0000000000000019
 30
11.621
 11
-7.499999999999993
 21
-0.0000000000000019
 31
11.62099999999999
  0
ARC
  5
13A
330
110
100
AcDbEntity
  8
Livello 01
100
AcDbCircle
 10
0.0
 20
0.0
 30
-62.9
 40
2.25
210
0.0
220
0.0
230
-1.0
100
AcDbArc
 50
0.000000000000014
 51
180.0
  0
ARC
  5
13B
330
110
100
AcDbEntity
  8
Livello 01
100
AcDbCircle
 10
0.0
 20
0.0
 30
16.5
 40
2.25
100
AcDbArc
 50
180.0
 51
89.99999999999999
  0
LINE
  5
13C
330
110
100
AcDbEntity
  8
Livello 01
100
AcDbLine
 10
-2.25
 20
0.0
 30
62.9
 11
-2.25
 21
0.0
 31
16.49999999999998
  0
ARC
  5
13D
330
110
100
AcDbEntity
  8
Livello 01
100
AcDbCircle
 10
0.0
 20
0.0
 30
-62.9
 40
2.25
210
0.0
220
0.0
230
-1.0
100
AcDbArc
 50
180.0
 51
0.0
  0
ARC
  5
13E
330
110
100
AcDbEntity
  8
Livello 01
100
AcDbCircle
 10
0.0
 20
0.0
 30
16.5
 40
2.25
100
AcDbArc
 50
89.99999999999999
 51
180.0
  0
ARC
  5
13F
330
110
100
AcDbEntity
  8
Livello 01
100
AcDbCircle
 10
0.0
 20
0.0
 30
-55.4
 40
6.49999999999999
210
0.0
220
0.0
230
-1.0
100
AcDbArc
 50
0.000000000000014
 51
180.0
  0
ARC
  5
140
330
110
100
AcDbEntity
  8
Livello 01
100
AcDbCircle
 10
0.0
 20
0.0
 30
54.4
 40
7.49999999999999
100
AcDbArc
 50
180.0
 51
89.99999999999994
  0
LINE
  5
141
330
110
100
AcDbEntity
  8
Livello 01
100
AcDbLine
 10
-6.499999999999988
 20
0.0
 30
55.40000000000001
 11
-7.499999999999989
 21
0.0
 31
54.39999999999999
  0
ARC
  5
142
330
110
100
AcDbEntity
  8
Livello 01
100
AcDbCircle
 10
0.0
 20
0.0
 30
-55.4
 40
6.49999999999999
210
0.0
220
0.0
230
-1.0
100
AcDbArc
 50
180.0
 51
0.0
  0
ARC
  5
143
330
110
100
AcDbEntity
  8
Livello 01
100
AcDbCircle
 10
0.0
 20
0.0
 30
54.4
 40
7.49999999999999
100
AcDbArc
 50
89.99999999999994
 51
180.0
  0
CIRCLE
  5
144
330
110
100
AcDbEntity
  8
Livello 01
100
AcDbCircle
 10
0.0
 20
59.9000000000002
 30
4.0
 40
2.6
210
0.0
220
-1.0
230
0.0
  0
ARC
  5
145
330
110
100
AcDbEntity
  8
Livello 01
100
AcDbCircle
 10
0.0
 20
59.9000000000002
 30
3.0
 40
0.867949192431119
210
0.0
220
-1.0
230
0.0
100
AcDbArc
 50
270.0
 51
90.00000000000001
  0
LINE
  5
146
330
110
100
AcDbEntity
  8
Livello 01
100
AcDbLine
 10
0.0
 20
-3.000000000000003
 30
59.03205080756907
 11
0.0
 21
-3.999999999999998
 31
57.3000000000002
  0
ARC
  5
147
330
110
100
AcDbEntity
  8
Livello 01
100
AcDbCircle
 10
0.0
 20
59.9000000000002
 30
3.0
 40
0.867949192431119
210
0.0
220
-1.0
230
0.0
100
AcDbArc
 50
90.00000000000001
 51
270.0
  0
CIRCLE
  5
148
330
110
100
AcDbEntity
  8
Livello 01
100
AcDbCircle
 10
0.0
 20
59.9000000000002
 30
4.0
 40
2.6
210
0.0
220
1.0
230
0.0
  0
ARC
  5
149
330
110
100
AcDbEntity
  8
Livello 01
100
AcDbCircle
 10
0.0
 20
59.9000000000002
 30
3.0
 40
0.867949192431119
210
0.0
220
1.0
230
0.0
100
AcDbArc
 50
90.00000000000001
 51
270.0
  0
LINE
  5
14A
330
110
100
AcDbEntity
  8
Livello 01
100
AcDbLine
 10
0.0
 20
3.0
 30
60.76794919243132
 11
0.0
 21
3.999999999999998
 31
62.5000000000002
  0
ARC
  5
14B
330
110
100
AcDbEntity
  8
Livello 01
100
AcDbCircle
 10
0.0
 20
59.9000000000002
 30
3.0
 40
0.867949192431119
210
0.0
220
1.0
230
0.0
100
AcDbArc
 50
270.0
 51
90.0
  0
ARC
  5
14C
330
110
100
AcDbEntity
  8
Livello 01
100
AcDbCircle
 10
0.0
 20
0.0
 30
-59.15000000000001
 40
5.0
210
0.0
220
0.0
230
-1.0
100
AcDbArc
 50
126.869897645844
 51
134.4270040008057
  0
ARC
  5
14D
330
110
100
AcDbEntity
  8
Livello 01
100
AcDbCircle
 10
0.0
 20
0.0
 30
-59.15000000000001
 40
5.0
210
0.0
220
0.0
230
-1.0
100
AcDbArc
 50
225.5729959991943
 51
233.130102354156
  0
ARC
  5
14E
330
110
100
AcDbEntity
  8
Livello 01
100
AcDbCircle
 10
0.0
 20
0.0
 30
-59.15000000000001
 40
5.0
210
0.0
220
0.0
230
-1.0
100
AcDbArc
 50
306.869897645844
 51
314.4270040008058
  0
CIRCLE
  5
14F
330
110
100
AcDbEntity
  8
Livello 01
100
AcDbCircle
 10
0.0
 20
0.0
 30
-28.20000000000005
 40
7.49999999999999
210
0.0
220
0.0
230
-1.0
  0
LINE
  5
150
330
110
100
AcDbEntity
  8
Livello 01
100
AcDbLine
 10
7.49999999999999
 20
0.0
 30
54.39999999999999
 11
7.49999999999999
 21
0.0
 31
11.62100000394289
  0
LINE
  5
151
330
110
100
AcDbEntity
  8
Livello 01
100
AcDbLine
 10
7.49999999999999
 20
0.0
 30
8.378999999999989
 11
7.49999999999999
 21
0.0
 31
2.000000000000006
  0
LINE
  5
152
330
110
100
AcDbEntity
  8
Livello 01
100
AcDbLine
 10
0.0
 20
-7.49999999999999
 30
54.39999999999999
 11
0.0
 21
-7.49999999999999
 31
2.000000000000004
  0
LINE
  5
153
330
110
100
AcDbEntity
  8
Livello 01
100
AcDbLine
 10
-7.49999999999999
 20
0.0
 30
54.4
 11
-7.49999999999999
 21
0.0
 31
11.62099999999999
  0
LINE
  5
154
330
110
100
AcDbEntity
  8
Livello 01
100
AcDbLine
 10
-7.49999999999999
 20
0.0
 30
8.378999996057138
 11
-7.49999999999999
 21
0.0
 31
2.000000000000006
  0
LINE
  5
155
330
110
100
AcDbEntity
  8
Livello 01
100
AcDbLine
 10
-6.49999999999999
 20
-0.0000000000000009
 30
55.4
 11
-3.5
 21
-0.0000000000000009
 31
55.4
  0
LINE
  5
156
330
110
100
AcDbEntity
  8
Livello 01
100
AcDbLine
 10
3.499999999999999
 20
-0.0000000000000009
 30
55.4
 11
6.499999999999989
 21
-0.0000000000000009
 31
55.4
  0
LINE
  5
157
330
110
100
AcDbEntity
  8
Livello 01
100
AcDbLine
 10
-0.0000000000000009
 20
-6.499999999999991
 30
55.4
 11
-0.0000000000000009
 21
-4.0
 31
55.4
  0
LINE
  5
158
330
110
100
AcDbEntity
  8
Livello 01
100
AcDbLine
 10
-0.0000000000000009
 20
4.0
 30
55.4
 11
-0.0000000000000009
 21
6.499999999999989
 31
55.4
  0
ARC
  5
159
330
110
100
AcDbEntity
  8
Livello 01
100
AcDbCircle
 10
0.0
 20
0.0
 30
-59.15000000000001
 40
5.0
210
0.0
220
0.0
230
-1.0
100
AcDbArc
 50
45.57299599919426
 51
53.13010235415599
  0
LINE
  5
15A
330
110
100
AcDbEntity
  8
Livello 01
100
AcDbLine
 10
-3.5
 20
0.0
 30
62.9
 11
-2.25
 21
0.0
 31
62.9
  0
LINE
  5
15B
330
110
100
AcDbEntity
  8
Livello 01
100
AcDbLine
 10
2.25
 20
0.0
 30
62.9
 11
3.5
 21
0.0
 31
62.9
  0
LINE
  5
15C
330
110
100
AcDbEntity
  8
Livello 01
100
AcDbLine
 10
0.0000000000000009
 20
-4.0
 30
62.9
 11
0.0000000000000009
 21
-2.25
 31
62.9
  0
LINE
  5
15D
330
110
100
AcDbEntity
  8
Livello 01
100
AcDbLine
 10
0.0000000000000009
 20
2.25
 30
62.9
 11
0.0000000000000009
 21
4.0
 31
62.9
  0
CIRCLE
  5
15E
330
110
100
AcDbEntity
  8
Livello 01
100
AcDbCircle
 10
0.0
 20
0.0
 30
-3.5
 40
5.5
210
0.0
220
0.0
230
-1.0
  0
LINE
  5
15F
330
110
100
AcDbEntity
  8
Livello 01
100
AcDbLine
 10
0.0
 20
5.5
 30
5.0
 11
0.0
 21
5.5
 31
2.000000000000001
  0
LINE
  5
160
330
110
100
AcDbEntity
  8
Livello 01
100
AcDbLine
 10
5.5
 20
0.0
 30
5.0
 11
5.5
 21
0.0
 31
2.000000000000001
  0
LINE
  5
161
330
110
100
AcDbEntity
  8
Livello 01
100
AcDbLine
 10
0.0
 20
-5.5
 30
5.0
 11
0.0
 21
-5.5
 31
2.000000000000001
  0
LINE
  5
162
330
110
100
AcDbEntity
  8
Livello 01
100
AcDbLine
 10
-5.5
 20
0.0
 30
5.0
 11
-3.85
 21
0.0
 31
5.0
  0
LINE
  5
163
330
110
100
AcDbEntity
  8
Livello 01
100
AcDbLine
 10
3.850000000000001
 20
0.0
 30
5.0
 11
5.5
 21
0.0
 31
5.0
  0
LINE
  5
164
330
110
100
AcDbEntity
  8
Livello 01
100
AcDbLine
 10
0.0
 20
-5.5
 30
5.0
 11
0.0
 21
-3.85
 31
5.0
  0
LINE
  5
165
330
110
100
AcDbEntity
  8
Livello 01
100
AcDbLine
 10
0.0
 20
3.850000000000001
 30
5.0
 11
0.0
 21
5.5
 31
5.0
  0
ARC
  5
166
330
110
100
AcDbEntity
  8
Livello 01
100
AcDbCircle
 10
0.0
 20
0.0
 30
-10.75
 40
3.85
210
0.0
220
0.0
230
-1.0
100
AcDbArc
 50
90.0
 51
158.1119912648804
  0
ARC
  5
167
330
110
100
AcDbEntity
  8
Livello 01
100
AcDbCircle
 10
0.0
 20
0.0
 30
-10.75
 40
3.85
210
0.0
220
0.0
230
-1.0
100
AcDbArc
 50
201.8727698618743
 51
338.1097099524571
  0
ARC
  5
168
330
110
100
AcDbEntity
  8
Livello 01
100
AcDbCircle
 10
0.0
 20
0.0
 30
-10.75
 40
3.85
210
0.0
220
0.0
230
-1.0
100
AcDbArc
 50
21.88065723219818
 51
89.99999999999999
  0
LINE
  5
169
330
110
100
AcDbEntity
  8
Livello 01
100
AcDbLine
 10
3.85
 20
0.0
 30
16.5
 11
3.85
 21
0.0
 31
11.62099703287359
  0
LINE
  5
16A
330
110
100
AcDbEntity
  8
Livello 01
100
AcDbLine
 10
3.85
 20
0.0
 30
8.379000000000007
 11
3.85
 21
0.0
 31
5.000000000000002
  0
LINE
  5
16B
330
110
100
AcDbEntity
  8
Livello 01
100
AcDbLine
 10
0.0
 20
-3.85
 30
16.5
 11
0.0
 21
-3.85
 31
5.000000000000002
  0
LINE
  5
16C
330
110
100
AcDbEntity
  8
Livello 01
100
AcDbLine
 10
-3.85
 20
0.0
 30
16.5
 11
-3.85
 21
0.0
 31
11.621
  0
LINE
  5
16D
330
110
100
AcDbEntity
  8
Livello 01
100
AcDbLine
 10
-3.85
 20
0.0
 30
8.37900296712641
 11
-3.85
 21
0.0
 31
5.000000000000002
  0
LINE
  5
16E
330
110
100
AcDbEntity
  8
Livello 01
100
AcDbLine
 10
-3.85
 20
-0.0000000000000004
 30
16.5
 11
-2.25
 21
-0.0000000000000004
 31
16.5
  0
LINE
  5
16F
330
110
100
AcDbEntity
  8
Livello 01
100
AcDbLine
 10
2.25
 20
-0.0000000000000004
 30
16.5
 11
3.85
 21
-0.0000000000000004
 31
16.5
  0
LINE
  5
170
330
110
100
AcDbEntity
  8
Livello 01
100
AcDbLine
 10
0.0000000000000004
 20
-3.85
 30
16.5
 11
0.0000000000000004
 21
-2.249999999999999
 31
16.5
  0
LINE
  5
171
330
110
100
AcDbEntity
  8
Livello 01
100
AcDbLine
 10
0.0000000000000004
 20
2.25
 30
16.5
 11
0.0000000000000004
 21
3.849999999999999
 31
16.5
  0
CIRCLE
  5
172
330
110
100
AcDbEntity
  8
Livello 01
100
AcDbCircle
 10
0.0
 20
10.0
 30
-5.471085043167497
 40
1.621
210
-1.0
220
0.0
230
0.0
  0
LINE
  5
173
330
110
100
AcDbEntity
  8
Livello 01
100
AcDbLine
 10
7.322728911127065
 20
-1.621
 30
10.0
 11
3.492115099965559
 21
-1.621
 31
10.0
  0
LINE
  5
174
330
110
100
AcDbEntity
  8
Livello 01
100
AcDbLine
 10
7.500000008129365
 20
-0.0000000000000006
 30
11.621
 11
3.849999092061918
 21
-0.0000000000000006
 31
11.621
  0
LINE
  5
175
330
110
100
AcDbEntity
  8
Livello 01
100
AcDbLine
 10
7.322729082630375
 20
1.621
 30
10.0
 11
3.492114194893587
 21
1.621
 31
10.0
  0
CIRCLE
  5
176
330
110
100
AcDbEntity
  8
Livello 01
100
AcDbCircle
 10
0.0
 20
9.999999999999993
 30
5.471085043167495
 40
1.621
210
-1.0
220
0.0
230
0.0
  0
LINE
  5
177
330
110
100
AcDbEntity
  8
Livello 01
100
AcDbLine
 10
-3.492114194893587
 20
1.621000000000002
 30
10.0
 11
-7.322729082630385
 21
1.621000000000002
 31
9.999999999999988
  0
LINE
  5
178
330
110
100
AcDbEntity
  8
Livello 01
100
AcDbLine
 10
-3.849999092061918
 20
0.0000000000000019
 30
8.378999999999994
 11
-7.500000008129362
 21
0.0000000000000019
 31
8.378999999999982
  0
LINE
  5
179
330
110
100
AcDbEntity
  8
Livello 01
100
AcDbLine
 10
-3.492115099965557
 20
-1.621000000000002
 30
9.999999999999996
 11
-7.322728911127072
 21
-1.621000000000002
 31
9.999999999999984
  0
LINE
  5
17A
330
110
100
AcDbEntity
  8
Livello 01
100
AcDbLine
 10
0.0
 20
4.0
 30
62.90000000000001
 11
0.0
 21
4.0
 31
62.5000000000002
  0
LINE
  5
17B
330
110
100
AcDbEntity
  8
Livello 01
100
AcDbLine
 10
0.0
 20
4.0
 30
57.3000000000002
 11
0.0
 21
4.0
 31
55.4
  0
LINE
  5
17C
330
110
100
AcDbEntity
  8
Livello 01
100
AcDbLine
 10
-3.0
 20
4.0
 30
59.15
 11
-2.48947785690086
 21
4.0
 31
59.15
  0
LINE
  5
17D
330
110
100
AcDbEntity
  8
Livello 01
100
AcDbLine
 10
2.48947785690086
 20
4.0
 30
59.15
 11
3.0
 21
4.0
 31
59.15
  0
LINE
  5
17E
330
110
100
AcDbEntity
  8
Livello 01
100
AcDbLine
 10
-3.5
 20
0.0
 30
62.89999999999999
 11
-3.5
 21
0.0
 31
55.4
  0
LINE
  5
17F
330
110
100
AcDbEntity
  8
Livello 01
100
AcDbLine
 10
-3.5
 20
-3.57071421427142
 30
59.15
 11
-3.5
 21
3.570714214271419
 31
59.15
  0
LINE
  5
180
330
110
100
AcDbEntity
  8
Livello 01
100
AcDbLine
 10
0.0
 20
-4.0
 30
55.40000000000001
 11
0.0
 21
-4.0
 31
57.3000000000002
  0
LINE
  5
181
330
110
100
AcDbEntity
  8
Livello 01
100
AcDbLine
 10
0.0
 20
-4.0
 30
62.5000000000002
 11
0.0
 21
-4.0
 31
62.9
  0
LINE
  5
182
330
110
100
AcDbEntity
  8
Livello 01
100
AcDbLine
 10
-3.0
 20
-4.0
 30
59.15
 11
-2.489477856900862
 21
-4.0
 31
59.15
  0
LINE
  5
183
330
110
100
AcDbEntity
  8
Livello 01
100
AcDbLine
 10
2.489477856900857
 20
-4.0
 30
59.15
 11
3.0
 21
-4.0
 31
59.15
  0
LINE
  5
184
330
110
100
AcDbEntity
  8
Livello 01
100
AcDbLine
 10
3.5
 20
0.0
 30
55.4
 11
3.5
 21
0.0
 31
62.89999999999999
  0
LINE
  5
185
330
110
100
AcDbEntity
  8
Livello 01
100
AcDbLine
 10
3.5
 20
-3.57071421427142
 30
59.15
 11
3.5
 21
3.570714214271419
 31
59.15
  0
CIRCLE
  5
186
330
110
100
AcDbEntity
  8
Livello 01
100
AcDbCircle
 10
0.0
 20
0.0
 30
-39.69999999999982
 40
2.25
210
0.0
220
0.0
230
-1.0
  0
LINE
  5
187
330
110
100
AcDbEntity
  8
Livello 01
100
AcDbLine
 10
0.0
 20
2.25
 30
62.90000000000001
 11
0.0
 21
2.25
 31
16.5
  0
LINE
  5
188
330
110
100
AcDbEntity
  8
Livello 01
100
AcDbLine
 10
2.25
 20
0.0
 30
62.90000000000001
 11
2.25
 21
0.0
 31
16.5
  0
LINE
  5
189
330
110
100
AcDbEntity
  8
Livello 01
100
AcDbLine
 10
0.0
 20
-2.25
 30
62.90000000000001
 11
0.0
 21
-2.25
 31
16.5
  0
LINE
  5
18A
330
110
100
AcDbEntity
  8
Livello 01
100
AcDbLine
 10
0.0
 20
3.0
 30
60.76794919243132
 11
0.0
 21
3.0
 31
59.03205080756908
  0
LINE
  5
18B
330
110
100
AcDbEntity
  8
Livello 01
100
AcDbLine
 10
-0.8679491924311187
 20
3.0
 30
59.90000000000019
 11
0.8679491924311187
 21
3.0
 31
59.90000000000019
  0
LINE
  5
18C
330
110
100
AcDbEntity
  8
Livello 01
100
AcDbLine
 10
0.0
 20
-3.0
 30
59.03205080756908
 11
0.0
 21
-3.0
 31
60.76794919243132
  0
LINE
  5
18D
330
110
100
AcDbEntity
  8
Livello 01
100
AcDbLine
 10
-0.8679491924311187
 20
-3.0
 30
59.90000000000019
 11
0.8679491924311187
 21
-3.0
 31
59.90000000000019
  0
LINE
  5
18E
330
110
100
AcDbEntity
  8
Livello 01
100
AcDbLine
 10
0.0
 20
6.499999999999989
 30
55.4
 11
0.0
 21
7.499999999999989
 31
54.39999999999999
  0
LINE
  5
18F
330
110
100
AcDbEntity
  8
Livello 01
100
AcDbLine
 10
6.499999999999989
 20
0.0
 30
55.4
 11
7.499999999999989
 21
0.0
 31
54.39999999999999
  0
LINE
  5
190
330
110
100
AcDbEntity
  8
Livello 01
100
AcDbLine
 10
0.0
 20
-6.499999999999989
 30
55.4
 11
0.0
 21
-7.499999999999989
 31
54.39999999999999
  0
CIRCLE
  5
191
330
110
100
AcDbEntity
  8
Livello 01
100
AcDbCircle
 10
0.0
 20
59.9000000000002
 30
3.35450018504814
 40
1.481961524227067
210
0.0
220
-1.0
230
0.0
  0
LINE
  5
192
330
110
100
AcDbEntity
  8
Livello 01
100
AcDbLine
 10
0.8679491924311179
 20
-3.0
 30
59.9000000000002
 11
2.599999999999998
 21
-3.999999999999998
 31
59.9000000000002
  0
LINE
  5
193
330
110
100
AcDbEntity
  8
Livello 01
100
AcDbLine
 10
0.0
 20
-3.0
 30
60.76794919243132
 11
0.0
 21
-3.999999999999998
 31
62.5000000000002
  0
LINE
  5
194
330
110
100
AcDbEntity
  8
Livello 01
100
AcDbLine
 10
-0.8679491924311179
 20
-3.0
 30
59.9000000000002
 11
-2.599999999999998
 21
-3.999999999999998
 31
59.9000000000002
  0
CIRCLE
  5
195
330
110
100
AcDbEntity
  8
Livello 01
100
AcDbCircle
 10
0.0
 20
59.9000000000002
 30
3.35450018504814
 40
1.481961524227067
210
0.0
220
1.0
230
0.0
  0
LINE
  5
196
330
110
100
AcDbEntity
  8
Livello 01
100
AcDbLine
 10
0.86794919243112
 20
3.0
 30
59.9000000000002
 11
2.600000000000005
 21
3.999999999999998
 31
59.9000000000002
  0
LINE
  5
197
330
110
100
AcDbEntity
  8
Livello 01
100
AcDbLine
 10
0.0
 20
3.0
 30
59.03205080756908
 11
0.0
 21
3.999999999999998
 31
57.3000000000002
  0
LINE
  5
198
330
110
100
AcDbEntity
  8
Livello 01
100
AcDbLine
 10
-0.86794919243112
 20
3.0
 30
59.9000000000002
 11
-2.600000000000005
 21
3.999999999999998
 31
59.9000000000002
  0
LINE
  5
199
330
110
100
AcDbEntity
  8
Livello 01
100
AcDbLine
 10
0.0
 20
7.499999999999985
 30
2.000000000000004
 11
0.0
 21
5.5
 31
2.000000000000004
  0
LINE
  5
19A
330
110
100
AcDbEntity
  8
Livello 01
100
AcDbLine
 10
0.0
 20
-5.5
 30
2.000000000000004
 11
0.0
 21
-7.499999999999994
 31
2.000000000000003
  0
LINE
  5
19B
330
110
100
AcDbEntity
  8
Livello 01
100
AcDbLine
 10
-7.499999999999943
 20
0.0000000000000071
 30
2.000000000000004
 11
-5.499999999999943
 21
0.0000000000000071
 31
2.000000000000004
  0
LINE
  5
19C
330
110
100
AcDbEntity
  8
Livello 01
100
AcDbLine
 10
5.499999999999943
 20
0.0000000000000071
 30
2.000000000000004
 11
7.500000000000115
 21
0.0000000000000071
 31
2.000000000000004
  0
ENDBLK
  5
19E
330
110
100
AcDbEntity
  8
0
100
AcDbBlockEnd
  0
BLOCK
  5
1C8
330
1A0
100
AcDbEntity
  8
0
100
AcDbBlockBegin
  2
10AN0156000
 70
     0
 10
0.0
 20
0.0
 30
0.0
  3
10AN0156000
  1

  0
ARC
  5
1A1
330
1A0
100
AcDbEntity
  8
Livello 01
 62
     9
420
 12632256
100
AcDbCircle
 10
0.0000000000000817
 20
-0.0000000000000002
 30
-1.0
 40
2.050000000000082
210
0.0
220
0.0
230
-1.0
100
AcDbArc
 50
0.0
 51
173.531686883486
  0
ARC
  5
1A2
330
1A0
100
AcDbEntity
  8
Livello 01
 62
     9
420
 12632256
100
AcDbCircle
 10
0.0000000000000817
 20
-0.0000000000000002
 30
-1.0
 40
2.050000000000082
210
0.0
220
0.0
230
-1.0
100
AcDbArc
 50
184.8467148151738
 51
0.0
  0
ARC
  5
1A3
330
1A0
100
AcDbEntity
  8
Livello 01
 62
     9
420
 12632256
100
AcDbCircle
 10
-0.0000000000009823
 20
0.0000000000001203
 30
0.0000000000001708
 40
2.050000000000983
100
AcDbArc
 50
180.0000000000034
 51
338.5231934993682
  0
ARC
  5
1A4
330
1A0
100
AcDbEntity
  8
Livello 01
 62
     9
420
 12632256
100
AcDbCircle
 10
-0.0000000000009823
 20
0.0000000000001203
 30
0.0000000000001708
 40
2.050000000000983
100
AcDbArc
 50
350.2714476570998
 51
180.0000000000034
  0
LINE
  5
1A5
330
1A0
100
AcDbEntity
  8
Livello 01
 62
     9
420
 12632256
100
AcDbLine
 10
-2.05
 20
0.0
 30
0.9999999999999999
 11
-2.05
 21
0.0
 31
0.000000000000339
  0
ARC
  5
1A6
330
1A0
100
AcDbEntity
  8
Livello 01
 62
     9
420
 12632256
100
AcDbCircle
 10
0.0000000000005329
 20
-0.0000000000000371
 30
-1.0
 40
3.500000000000533
210
0.0
220
0.0
230
-1.0
100
AcDbArc
 50
182.8365643336145
 51
0.0000000000005639
  0
ARC
  5
1A7
330
1A0
100
AcDbEntity
  8
Livello 01
 62
     9
420
 12632256
100
AcDbCircle
 10
0.0000000000005329
 20
-0.0000000000000371
 30
-1.0
 40
3.500000000000533
210
0.0
220
0.0
230
-1.0
100
AcDbArc
 50
0.0000000000005639
 51
176.2167103646192
  0
ARC
  5
1A8
330
1A0
100
AcDbEntity
  8
Livello 01
 62
     9
420
 12632256
100
AcDbCircle
 10
-0.0000000000033822
 20
0.0000000000006866
 30
0.0000000000005332
 40
3.500000000003453
100
AcDbArc
 50
354.319888984068
 51
180.0000000000113
  0
ARC
  5
1A9
330
1A0
100
AcDbEntity
  8
Livello 01
 62
     9
420
 12632256
100
AcDbCircle
 10
-0.0000000000033822
 20
0.0000000000006866
 30
0.0000000000005332
 40
3.500000000003453
100
AcDbArc
 50
180.0000000000113
 51
347.6170673141466
  0
LINE
  5
1AA
330
1A0
100
AcDbEntity
  8
Livello 01
 62
     9
420
 12632256
100
AcDbLine
 10
-3.5
 20
0.0
 30
0.9999999999999999
 11
-3.5
 21
0.0
 31
0.000000000001054
  0
SPLINE
  5
1AB
330
1A0
100
AcDbEntity
  8
Livello 01
 62
     9
420
 12632256
100
AcDbSpline
210
0.0
220
0.0
230
1.0
 70
    24
 71
     2
 72
     6
 73
     3
 74
     0
 42
0.0000000001
 43
0.0000000001
 40
-1.4554223065831
 40
-1.4554223065831
 40
-1.4554223065831
 40
0.0
 40
0.0
 40
0.0
 10
3.49237264143829
 20
0.230940107675849
 30
1.0
 10
2.76466148814674
 20
0.230940107675849
 30
1.0
 10
2.03695033485519
 20
0.230940107675849
 30
1.0
  0
SPLINE
  5
1AC
330
1A0
100
AcDbEntity
  8
Livello 01
 62
     9
420
 12632256
100
AcDbSpline
210
0.0
220
0.0
230
1.0
 70
    24
 71
     2
 72
     6
 73
     3
 74
     0
 42
0.0000000001
 43
0.0000000001
 40
-1.45304183700816
 40
-1.45304183700816
 40
-1.45304183700816
 40
0.0
 40
0.0
 40
0.0
 10
2.04266982158155
 20
-0.173205080756889
 30
1.0
 10
2.76919074008563
 20
-0.173205080756889
 30
1.0
 10
3.49571165858971
 20
-0.173205080756889
 30
1.0
  0
SPLINE
  5
1AD
330
1A0
100
AcDbEntity
  8
Livello 01
 62
     9
420
 12632256
100
AcDbSpline
210
0.0
220
0.0
230
1.0
 70
    24
 71
     2
 72
     6
 73
     3
 74
     0
 42
0.0000000001
 43
0.0000000001
 40
0.0
 40
0.0
 40
0.0
 40
1.46229521833595
 40
1.46229521833595
 40
1.46229521833595
 10
3.48281495345362
 20
-0.346410161513774
 30
0.0000000000000036
 10
2.751667344285645
 20
-0.346410161513775
 30
0.0000000000000018
 10
2.02051973511767
 20
-0.346410161513776
 30
0.0
  0
SPLINE
  5
1AE
330
1A0
100
AcDbEntity
  8
Livello 01
 62
     9
420
 12632256
100
AcDbSpline
210
0.0
220
0.0
230
1.0
 70
    24
 71
     2
 72
     6
 73
     3
 74
     0
 42
0.0000000001
 43
0.0000000001
 40
0.0
 40
0.0
 40
0.0
 40
1.51091670422579
 40
1.51091670422579
 40
1.51091670422579
 10
1.90765999765859
 20
-0.750555349946513
 30
0.0000000000000036
 10
2.663118349771485
 20
-0.750555349946514
 30
0.0000000000000018
 10
3.41857670188438
 20
-0.750555349946515
 30
0.0
  0
SPLINE
  5
1AF
330
1A0
100
AcDbEntity
  8
Livello 01
 62
     9
420
 12632256
100
AcDbSpline
210
-3.349154933746247E-14
220
0.8660254037844405
230
-0.4999999999999967
 70
    12
 71
     2
 72
     6
 73
     3
 74
     0
 42
0.0000000001
 43
0.0000000001
 40
0.0
 40
0.0
 40
0.0
 40
1.165924231840572
 40
1.165924231840572
 40
1.165924231840572
 10
1.90765999765859
 20
-0.750555349946513
 30
0.0000000000000036
 41
0.8905566496968718
 10
2.017355479595989
 20
-0.4717462217045773
 30
0.4829115757290197
 41
0.918507389851339
 10
2.04266982158155
 20
-0.173205080756889
 30
1.0
 41
0.9675709696342103
  0
SPLINE
  5
1B0
330
1A0
100
AcDbEntity
  8
Livello 01
 62
     9
420
 12632256
100
AcDbSpline
210
-5.094474879296959E-14
220
0.8660254037844405
230
-0.4999999999999972
 70
    12
 71
     2
 72
     6
 73
     3
 74
     0
 42
0.0000000001
 43
0.0000000001
 40
-1.158309308757562
 40
-1.158309308757562
 40
-1.158309308757562
 40
0.0
 40
0.0
 40
0.0
 10
3.418576701884379
 20
-0.7505553499465148
 30
0.0
 41
0.9266212421873452
 10
3.481248854207458
 20
-0.4651006399056091
 30
0.4944220610506878
 41
0.9498263681254097
 10
3.49571165858971
 20
-0.173205080756889
 30
0.9999999999999999
 41
0.980401053425818
  0
SPLINE
  5
1B1
330
1A0
100
AcDbEntity
  8
Livello 01
 62
     9
420
 12632256
100
AcDbSpline
210
1.075404451739593E-14
220
0.8660254037844388
230
-0.4999999999999997
 70
    12
 71
     2
 72
     8
 73
     5
 74
     0
 42
0.0000000001
 43
0.0000000001
 40
0.0
 40
0.0
 40
0.0
 40
0.4622497965072764
 40
0.4622497965072764
 40
1.156331375576071
 40
1.156331375576071
 40
1.156331375576071
 10
2.03695033485519
 20
0.230940107675849
 30
1.0
 41
0.9578306074240659
 10
2.05
 20
0.1158387506444376
 30
0.8006386016014699
 41
0.9771294596488944
 10
2.05
 20
0.0
 30
0.600000000000002
 41
1.0
 10
2.05
 20
-0.1744594983723158
 30
0.297827284956171
 41
0.9659498028211174
 10
2.02051973511767
 20
-0.346410161513776
 30
0.0
 41
0.9398165928133119
  0
SPLINE
  5
1B2
330
1A0
100
AcDbEntity
  8
Livello 01
 62
     9
420
 12632256
100
AcDbSpline
210
1.342401377462949E-14
220
0.8660254037844388
230
-0.4999999999999997
 70
    12
 71
     2
 72
     8
 73
     5
 74
     0
 42
0.0000000001
 43
0.0000000001
 40
-1.155253651387721
 40
-1.155253651387721
 40
-1.155253651387721
 40
-0.6932473769033285
 40
-0.6932473769033285
 40
0.0
 40
0.0
 40
0.0
 10
3.492372641438291
 20
0.230940107675849
 30
1.0
 41
0.9742521389779337
 10
3.5
 20
0.1155960098687207
 30
0.8002181622448595
 41
0.9865042178211215
 10
3.5
 20
0.0
 30
0.600000000000002
 41
1.0
 10
3.5
 20
-0.173631346868007
 30
0.2992616854379985
 41
0.9798650447128123
 10
3.48281495345362
 20
-0.346410161513774
 30
0.0000000000000036
 41
0.9624984459349316
  0
ARC
  5
1B3
330
1A0
100
AcDbEntity
  8
Livello 01
 62
     9
420
 12632256
100
AcDbCircle
 10
0.0
 20
0.0
 30
-0.5
 40
2.05
210
0.0
220
0.0
230
-1.0
100
AcDbArc
 50
193.0187170853827
 51
0.0
  0
LINE
  5
1B4
330
1A0
100
AcDbEntity
  8
Livello 01
 62
     9
420
 12632256
100
AcDbLine
 10
0.0
 20
-2.05
 30
0.9999999999999999
 11
0.0
 21
-2.05
 31
0.0000000000001485
  0
ARC
  5
1B5
330
1A0
100
AcDbEntity
  8
Livello 01
 62
     9
420
 12632256
100
AcDbCircle
 10
0.0
 20
0.0
 30
-0.5
 40
2.05
210
0.0
220
0.0
230
-1.0
100
AcDbArc
 50
0.0
 51
181.6136325090593
  0
LINE
  5
1B6
330
1A0
100
AcDbEntity
  8
Livello 01
 62
     9
420
 12632256
100
AcDbLine
 10
0.0
 20
2.05
 30
0.9999999999999999
 11
0.0
 21
2.05
 31
0.0000000000001781
  0
LINE
  5
1B7
330
1A0
100
AcDbEntity
  8
Livello 01
 62
     9
420
 12632256
100
AcDbLine
 10
2.05
 20
0.0
 30
0.5999896396051584
 11
2.05
 21
0.0
 31
0.0000000000000173
  0
ARC
  5
1B8
330
1A0
100
AcDbEntity
  8
Livello 01
 62
     9
420
 12632256
100
AcDbCircle
 10
0.0
 20
0.0
 30
-0.5
 40
3.5
210
0.0
220
0.0
230
-1.0
100
AcDbArc
 50
0.0
 51
180.9451620005157
  0
LINE
  5
1B9
330
1A0
100
AcDbEntity
  8
Livello 01
 62
     9
420
 12632256
100
AcDbLine
 10
0.0
 20
3.5
 30
0.9999999999999999
 11
0.0
 21
3.5
 31
0.0000000000005449
  0
LINE
  5
1BA
330
1A0
100
AcDbEntity
  8
Livello 01
 62
     9
420
 12632256
100
AcDbLine
 10
3.5
 20
0.0
 30
0.599998742113097
 11
3.5
 21
0.0
 31
0.000000000000036
  0
ARC
  5
1BB
330
1A0
100
AcDbEntity
  8
Livello 01
 62
     9
420
 12632256
100
AcDbCircle
 10
0.0
 20
0.0
 30
-0.5
 40
3.5
210
0.0
220
0.0
230
-1.0
100
AcDbArc
 50
187.5830632436935
 51
0.0
  0
LINE
  5
1BC
330
1A0
100
AcDbEntity
  8
Livello 01
 62
     9
420
 12632256
100
AcDbLine
 10
0.0
 20
-3.5
 30
0.9999999999999999
 11
0.0
 21
-3.5
 31
0.0000000000004881
  0
LINE
  5
1BD
330
1A0
100
AcDbEntity
  8
Livello 01
 62
     9
420
 12632256
100
AcDbLine
 10
-2.04981893841833
 20
0.0272455446305715
 30
1.0
 11
-3.499893952722743
 21
0.0272455446305715
 31
1.0
  0
LINE
  5
1BE
330
1A0
100
AcDbEntity
  8
Livello 01
 62
     9
420
 12632256
100
AcDbLine
 10
-0.0161306295030852
 20
-3.499962828773449
 30
1.0
 11
-0.0161306295030852
 21
-2.049936536284032
 31
1.0
  0
LINE
  5
1BF
330
1A0
100
AcDbEntity
  8
Livello 01
 62
     9
420
 12632256
100
AcDbLine
 10
-0.0161306295030852
 20
2.049936536284031
 30
1.0
 11
-0.0161306295030852
 21
3.499962828773376
 31
1.0
  0
LINE
  5
1C0
330
1A0
100
AcDbEntity
  8
Livello 01
 62
     9
420
 12632256
100
AcDbLine
 10
3.499036969104823
 20
-0.0820992621046321
 30
0.0
 11
2.048355367401337
 21
-0.0820992621046321
 31
0.0
  0
LINE
  5
1C1
330
1A0
100
AcDbEntity
  8
Livello 01
 62
     9
420
 12632256
100
AcDbLine
 10
-2.048355367403299
 20
-0.0820992621046321
 30
0.0
 11
-3.499036969111586
 21
-0.0820992621046321
 31
0.0
  0
LINE
  5
1C2
330
1A0
100
AcDbEntity
  8
Livello 01
 62
     9
420
 12632256
100
AcDbLine
 10
-0.0854762385703633
 20
-3.498956103277062
 30
0.0
 11
-0.0854762385703633
 21
-2.048217227894437
 31
0.0
  0
LINE
  5
1C3
330
1A0
100
AcDbEntity
  8
Livello 01
 62
     9
420
 12632256
100
AcDbLine
 10
-0.0854762385703633
 20
2.048217227894677
 30
0.0
 11
-0.0854762385703633
 21
3.498956103278437
 31
0.0
  0
LINE
  5
1C4
330
1A0
100
AcDbEntity
  8
Livello 01
 62
     9
420
 12632256
100
AcDbLine
 10
2.701685828124155
 20
-0.7505553499465125
 30
0.0000000000000008
 11
2.701685828124155
 21
-0.173205080756888
 31
0.9999999999999992
  0
LINE
  5
1C5
330
1A0
100
AcDbEntity
  8
Livello 01
 62
     9
420
 12632256
100
AcDbLine
 10
1.997289830411859
 20
-0.4618802153517007
 30
0.4999999999999992
 11
3.469389955981711
 21
-0.4618802153517007
 31
0.4999999999999992
  0
LINE
  5
1C6
330
1A0
100
AcDbEntity
  8
Livello 01
 62
     9
420
 12632256
100
AcDbLine
 10
2.760259867558844
 20
0.2309401076758508
 30
0.999999999999999
 11
2.760259867558844
 21
-0.3464101615137735
 31
0.000000000000001
  0
LINE
  5
1C7
330
1A0
100
AcDbEntity
  8
Livello 01
 62
     9
420
 12632256
100
AcDbLine
 10
2.049186830590784
 20
-0.0577350269189619
 30
0.4999999999999989
 11
3.499523777125503
 21
-0.0577350269189619
 31
0.4999999999999989
  0
ENDBLK
  5
1C9
330
1A0
100
AcDbEntity
  8
0
100
AcDbBlockEnd
  0
BLOCK
  5
207
330
1CB
100
AcDbEntity
  8
0
100
AcDbBlockBegin
  2
10VI0566000
 70
     0
 10
0.0
 20
0.0
 30
0.0
  3
10VI0566000
  1

  0
CIRCLE
  5
1CC
330
1CB
100
AcDbEntity
  8
Livello 01
100
AcDbCircle
 10
0.0
 20
0.0
 30
50.0
 40
3.5
  0
SPLINE
  5
1CD
330
1CB
100
AcDbEntity
  8
Livello 01
100
AcDbSpline
210
0.0
220
0.0
230
1.0
 70
    24
 71
     2
 72
     6
 73
     3
 74
     0
 42
0.0000000001
 43
0.0000000001
 40
0.0
 40
0.0
 40
0.0
 40
1.300000000000004
 40
1.300000000000004
 40
1.300000000000004
 10
-3.45651558654087
 20
0.55
 30
51.3
 10
-3.45651558654087
 20
0.55
 30
51.95
 10
-3.45651558654087
 20
0.55
 30
52.6
  0
ARC
  5
1CE
330
1CB
100
AcDbEntity
  8
Livello 01
100
AcDbCircle
 10
0.0000000000000003
 20
0.0000000000000008
 30
-52.6
 40
3.499999999999996
210
0.0
220
0.0
230
-1.0
100
AcDbArc
 50
9.041096148575152
 51
89.99999999999999
  0
ARC
  5
1CF
330
1CB
100
AcDbEntity
  8
Livello 01
100
AcDbCircle
 10
0.0000000000000003
 20
0.0000000000000008
 30
-52.6
 40
3.499999999999996
210
0.0
220
0.0
230
-1.0
100
AcDbArc
 50
89.99999999999999
 51
170.9589038514249
  0
SPLINE
  5
1D0
330
1CB
100
AcDbEntity
  8
Livello 01
100
AcDbSpline
210
0.0
220
0.0
230
1.0
 70
    24
 71
     2
 72
     6
 73
     3
 74
     0
 42
0.0000000001
 43
0.0000000001
 40
0.0
 40
0.0
 40
0.0
 40
1.300000000000004
 40
1.300000000000004
 40
1.300000000000004
 10
3.45651558654087
 20
0.550000000000001
 30
52.6
 10
3.45651558654087
 20
0.550000000000001
 30
51.95
 10
3.45651558654087
 20
0.550000000000001
 30
51.3
  0
ARC
  5
1D1
330
1CB
100
AcDbEntity
  8
Livello 01
100
AcDbCircle
 10
-0.0000000000001261
 20
-0.0000000000000013
 30
-51.3
 40
3.499999999999872
210
0.0
220
0.0
230
-1.0
100
AcDbArc
 50
170.9589038514245
 51
189.0410961485755
  0
SPLINE
  5
1D2
330
1CB
100
AcDbEntity
  8
Livello 01
100
AcDbSpline
210
0.0
220
0.0
230
1.0
 70
    24
 71
     2
 72
     6
 73
     3
 74
     0
 42
0.0000000001
 43
0.0000000001
 40
0.0
 40
0.0
 40
0.0
 40
1.300000000000004
 40
1.300000000000004
 40
1.300000000000004
 10
3.45651558654087
 20
-0.550000000000001
 30
51.3
 10
3.45651558654087
 20
-0.550000000000001
 30
51.95
 10
3.45651558654087
 20
-0.550000000000001
 30
52.6
  0
ARC
  5
1D3
330
1CB
100
AcDbEntity
  8
Livello 01
100
AcDbCircle
 10
0.0000000000000001
 20
-0.0000000000000009
 30
-52.6
 40
3.499999999999996
210
0.0
220
0.0
230
-1.0
100
AcDbArc
 50
189.0410961485752
 51
350.9589038514248
  0
SPLINE
  5
1D4
330
1CB
100
AcDbEntity
  8
Livello 01
100
AcDbSpline
210
0.0
220
0.0
230
1.0
 70
    24
 71
     2
 72
     6
 73
     3
 74
     0
 42
0.0000000001
 43
0.0000000001
 40
0.0
 40
0.0
 40
0.0
 40
1.300000000000004
 40
1.300000000000004
 40
1.300000000000004
 10
-3.45651558654087
 20
-0.550000000000001
 30
52.6
 10
-3.45651558654087
 20
-0.550000000000001
 30
51.95
 10
-3.45651558654087
 20
-0.550000000000001
 30
51.3
  0
ARC
  5
1D5
330
1CB
100
AcDbEntity
  8
Livello 01
100
AcDbCircle
 10
0.0000000000001252
 20
-0.0000000000000005
 30
-51.3
 40
3.499999999999873
210
0.0
220
0.0
230
-1.0
100
AcDbArc
 50
350.9589038514245
 51
9.041096148575503
  0
LINE
  5
1D6
330
1CB
100
AcDbEntity
  8
Livello 01
100
AcDbLine
 10
0.0
 20
3.5
 30
52.6
 11
0.0
 21
3.5
 31
50.0
  0
SPLINE
  5
1D7
330
1CB
100
AcDbEntity
  8
Livello 01
100
AcDbSpline
210
0.0
220
0.0
230
1.0
 70
    24
 71
     2
 72
     6
 73
     3
 74
     0
 42
0.0000000001
 43
0.0000000001
 40
-6.50768776140958
 40
-6.50768776140958
 40
-6.50768776140958
 40
0.0
 40
0.0
 40
0.0
 10
3.25384388070479
 20
0.550000000000001
 30
52.8
 10
0.0
 20
0.5500000000000005
 30
52.8
 10
-3.25384388070479
 20
0.55
 30
52.8
  0
SPLINE
  5
1D8
330
1CB
100
AcDbEntity
  8
Livello 01
100
AcDbSpline
210
0.0
220
0.0
230
1.0
 70
    24
 71
     2
 72
     6
 73
     3
 74
     0
 42
0.0000000001
 43
0.0000000001
 40
-6.50768776140958
 40
-6.50768776140958
 40
-6.50768776140958
 40
0.0
 40
0.0
 40
0.0
 10
-3.25384388070479
 20
-0.550000000000001
 30
52.8
 10
0.0
 20
-0.550000000000001
 30
52.8
 10
3.25384388070479
 20
-0.550000000000001
 30
52.8
  0
CIRCLE
  5
1D9
330
1CB
100
AcDbEntity
  8
Livello 01
100
AcDbCircle
 10
0.0
 20
0.0
 30
-50.0
 40
2.0
210
0.0
220
0.0
230
-1.0
  0
LINE
  5
1DA
330
1CB
100
AcDbEntity
  8
Livello 01
100
AcDbLine
 10
-2.0
 20
0.0
 30
50.0
 11
-2.0
 21
0.0
 31
0.4999999999999911
  0
ARC
  5
1DB
330
1CB
100
AcDbEntity
  8
Livello 01
100
AcDbCircle
 10
0.0
 20
0.0
 30
-0.5
 40
2.0
210
0.0
220
0.0
230
-1.0
100
AcDbArc
 50
180.0
 51
0.0
  0
ARC
  5
1DC
330
1CB
100
AcDbEntity
  8
Livello 01
100
AcDbCircle
 10
0.0
 20
0.0
 30
0.0
 40
1.5
100
AcDbArc
 50
0.000000000000014
 51
180.0
  0
LINE
  5
1DD
330
1CB
100
AcDbEntity
  8
Livello 01
100
AcDbLine
 10
1.5
 20
0.0
 30
-0.0000000000000003
 11
2.0
 21
0.0
 31
0.5
  0
ARC
  5
1DE
330
1CB
100
AcDbEntity
  8
Livello 01
100
AcDbCircle
 10
0.0
 20
0.0
 30
-0.5
 40
2.0
210
0.0
220
0.0
230
-1.0
100
AcDbArc
 50
0.0
 51
180.0
  0
ARC
  5
1DF
330
1CB
100
AcDbEntity
  8
Livello 01
100
AcDbCircle
 10
0.0
 20
0.0
 30
0.0
 40
1.5
100
AcDbArc
 50
180.0
 51
0.0
  0
SPLINE
  5
1E0
330
1CB
100
AcDbEntity
  8
Livello 01
100
AcDbSpline
210
0.0
220
-1.0
230
0.0
 70
     8
 71
     3
 72
     8
 73
     4
 74
     0
 42
0.0000000001
 43
0.0000000001
 40
-0.3470406974099137
 40
-0.3470406974099137
 40
-0.3470406974099137
 40
-0.3470406974099137
 40
0.0
 40
0.0
 40
0.0
 40
0.0
 10
3.25384388070479
 20
0.550000000000001
 30
52.8
 10
3.360168690327276
 20
0.550000000000001
 30
52.80000000000025
 10
3.456515586540593
 20
0.550000000000001
 30
52.70636405951066
 10
3.45651558654087
 20
0.550000000000001
 30
52.6
  0
SPLINE
  5
1E1
330
1CB
100
AcDbEntity
  8
Livello 01
100
AcDbSpline
210
0.0
220
1.0
230
0.0
 70
     8
 71
     3
 72
     8
 73
     4
 74
     0
 42
0.0000000001
 43
0.0000000001
 40
-0.3470548803859002
 40
-0.3470548803859002
 40
-0.3470548803859002
 40
-0.3470548803859002
 40
0.0
 40
0.0
 40
0.0
 40
0.0
 10
-3.45651558654087
 20
0.55
 30
52.6
 10
-3.456515586540954
 20
0.55
 30
52.70638938302772
 10
-3.360191698841376
 20
0.55
 30
52.79999999999991
 10
-3.25384388070479
 20
0.55
 30
52.8
  0
SPLINE
  5
1E2
330
1CB
100
AcDbEntity
  8
Livello 01
100
AcDbSpline
210
0.0
220
-1.0
230
0.0
 70
     8
 71
     3
 72
     8
 73
     4
 74
     0
 42
0.0000000001
 43
0.0000000001
 40
-0.3470406974099137
 40
-0.3470406974099137
 40
-0.3470406974099137
 40
-0.3470406974099137
 40
0.0
 40
0.0
 40
0.0
 40
0.0
 10
-3.25384388070479
 20
-0.550000000000001
 30
52.8
 10
-3.360168690327276
 20
-0.550000000000001
 30
52.80000000000025
 10
-3.456515586540593
 20
-0.550000000000001
 30
52.70636405951066
 10
-3.45651558654087
 20
-0.550000000000001
 30
52.6
  0
SPLINE
  5
1E3
330
1CB
100
AcDbEntity
  8
Livello 01
100
AcDbSpline
210
0.0
220
1.0
230
0.0
 70
     8
 71
     3
 72
     8
 73
     4
 74
     0
 42
0.0000000001
 43
0.0000000001
 40
-0.3470548803859002
 40
-0.3470548803859002
 40
-0.3470548803859002
 40
-0.3470548803859002
 40
0.0
 40
0.0
 40
0.0
 40
0.0
 10
3.45651558654087
 20
-0.550000000000001
 30
52.6
 10
3.456515586540954
 20
-0.550000000000001
 30
52.70638938302772
 10
3.360191698841376
 20
-0.550000000000001
 30
52.79999999999991
 10
3.25384388070479
 20
-0.550000000000001
 30
52.8
  0
SPLINE
  5
1E4
330
1CB
100
AcDbEntity
  8
Livello 01
100
AcDbSpline
210
0.0
220
0.0
230
1.0
 70
    24
 71
     2
 72
     6
 73
     3
 74
     0
 42
0.0000000001
 43
0.0000000001
 40
0.0
 40
0.0
 40
0.0
 40
6.91303117308174
 40
6.91303117308174
 40
6.91303117308174
 10
-3.45651558654087
 20
-0.550000000000001
 30
51.3
 10
0.0
 20
-0.550000000000001
 30
51.3
 10
3.45651558654087
 20
-0.550000000000001
 30
51.3
  0
SPLINE
  5
1E5
330
1CB
100
AcDbEntity
  8
Livello 01
100
AcDbSpline
210
0.0
220
0.0
230
1.0
 70
    24
 71
     2
 72
     6
 73
     3
 74
     0
 42
0.0000000001
 43
0.0000000001
 40
0.0
 40
0.0
 40
0.0
 40
6.91303117308174
 40
6.91303117308174
 40
6.91303117308174
 10
3.45651558654087
 20
0.550000000000001
 30
51.3
 10
0.0
 20
0.5500000000000005
 30
51.3
 10
-3.45651558654087
 20
0.55
 30
51.3
  0
ARC
  5
1E6
330
1CB
100
AcDbEntity
  8
Livello 01
100
AcDbCircle
 10
0.0
 20
0.0000000000000006
 30
-52.8
 40
3.300000000000001
210
0.0
220
0.0
230
-1.0
100
AcDbArc
 50
189.5940682268605
 51
350.4059317731395
  0
ARC
  5
1E7
330
1CB
100
AcDbEntity
  8
Livello 01
100
AcDbCircle
 10
-0.0000000000000001
 20
-0.0000000000000003
 30
-52.8
 40
3.300000000000001
210
0.0
220
0.0
230
-1.0
100
AcDbArc
 50
9.594068226860461
 51
170.4059317731395
  0
ARC
  5
1E8
330
1CB
100
AcDbEntity
  8
Livello 01
100
AcDbCircle
 10
0.0
 20
0.0
 30
-51.3
 40
3.5
210
0.0
220
0.0
230
-1.0
100
AcDbArc
 50
90.0
 51
170.9589038514248
  0
ARC
  5
1E9
330
1CB
100
AcDbEntity
  8
Livello 01
100
AcDbCircle
 10
0.0
 20
0.0
 30
-51.3
 40
3.5
210
0.0
220
0.0
230
-1.0
100
AcDbArc
 50
189.0410961485752
 51
350.9589038514248
  0
ARC
  5
1EA
330
1CB
100
AcDbEntity
  8
Livello 01
100
AcDbCircle
 10
0.0
 20
0.0
 30
-51.3
 40
3.5
210
0.0
220
0.0
230
-1.0
100
AcDbArc
 50
9.041096148575155
 51
89.99999999999999
  0
LINE
  5
1EB
330
1CB
100
AcDbEntity
  8
Livello 01
100
AcDbLine
 10
3.5
 20
0.0
 30
51.3
 11
3.5
 21
0.0
 31
50.00000000000001
  0
LINE
  5
1EC
330
1CB
100
AcDbEntity
  8
Livello 01
100
AcDbLine
 10
0.0
 20
-3.5
 30
52.60000000000001
 11
0.0
 21
-3.5
 31
50.00000000000001
  0
LINE
  5
1ED
330
1CB
100
AcDbEntity
  8
Livello 01
100
AcDbLine
 10
-3.5
 20
0.0
 30
51.3
 11
-3.5
 21
0.0
 31
50.00000000000001
  0
LINE
  5
1EE
330
1CB
100
AcDbEntity
  8
Livello 01
100
AcDbLine
 10
2.680368444822466
 20
1.925
 30
52.8
 11
-2.680368444822466
 21
1.925
 31
52.8
  0
LINE
  5
1EF
330
1CB
100
AcDbEntity
  8
Livello 01
100
AcDbLine
 10
0.0
 20
0.5500000000000005
 30
52.8
 11
0.0
 21
3.3
 31
52.8
  0
LINE
  5
1F0
330
1CB
100
AcDbEntity
  8
Livello 01
100
AcDbLine
 10
2.680368444822466
 20
-1.925000000000001
 30
52.8
 11
-2.680368444822466
 21
-1.925000000000001
 31
52.8
  0
LINE
  5
1F1
330
1CB
100
AcDbEntity
  8
Livello 01
100
AcDbLine
 10
0.0
 20
-3.300000000000001
 30
52.8
 11
0.0
 21
-0.5500000000000008
 31
52.8
  0
CIRCLE
  5
1F2
330
1CB
100
AcDbEntity
  8
Livello 01
100
AcDbCircle
 10
0.0
 20
0.0
 30
-25.25
 40
2.0
210
0.0
220
0.0
230
-1.0
  0
LINE
  5
1F3
330
1CB
100
AcDbEntity
  8
Livello 01
100
AcDbLine
 10
0.0
 20
2.0
 30
50.0
 11
0.0
 21
2.0
 31
0.4999999999999938
  0
LINE
  5
1F4
330
1CB
100
AcDbEntity
  8
Livello 01
100
AcDbLine
 10
2.0
 20
0.0
 30
50.0
 11
2.0
 21
0.0
 31
0.4999999999999938
  0
LINE
  5
1F5
330
1CB
100
AcDbEntity
  8
Livello 01
100
AcDbLine
 10
0.0
 20
-2.0
 30
50.0
 11
0.0
 21
-2.0
 31
0.4999999999999938
  0
LINE
  5
1F6
330
1CB
100
AcDbEntity
  8
Livello 01
100
AcDbLine
 10
1.5
 20
0.0
 30
0.0
 11
-1.5
 21
0.0
 31
0.0
  0
LINE
  5
1F7
330
1CB
100
AcDbEntity
  8
Livello 01
100
AcDbLine
 10
0.0
 20
-1.5
 30
0.0
 11
0.0
 21
1.5
 31
0.0
  0
LINE
  5
1F8
330
1CB
100
AcDbEntity
  8
Livello 01
100
AcDbLine
 10
0.0
 20
1.5
 30
0.0
 11
0.0
 21
2.0
 31
0.5000000000000004
  0
LINE
  5
1F9
330
1CB
100
AcDbEntity
  8
Livello 01
100
AcDbLine
 10
-1.5
 20
0.0
 30
0.0
 11
-2.0
 21
0.0
 31
0.5000000000000004
  0
LINE
  5
1FA
330
1CB
100
AcDbEntity
  8
Livello 01
100
AcDbLine
 10
0.0
 20
-1.5
 30
0.0
 11
0.0
 21
-2.0
 31
0.5000000000000004
  0
LINE
  5
1FB
330
1CB
100
AcDbEntity
  8
Livello 01
100
AcDbLine
 10
3.5
 20
0.0
 30
50.0
 11
2.0
 21
0.0
 31
50.0
  0
LINE
  5
1FC
330
1CB
100
AcDbEntity
  8
Livello 01
100
AcDbLine
 10
-2.0
 20
0.0
 30
50.0
 11
-3.5
 21
0.0
 31
50.0
  0
LINE
  5
1FD
330
1CB
100
AcDbEntity
  8
Livello 01
100
AcDbLine
 10
0.0
 20
-3.5
 30
50.0
 11
0.0
 21
-2.0
 31
50.0
  0
LINE
  5
1FE
330
1CB
100
AcDbEntity
  8
Livello 01
100
AcDbLine
 10
0.0
 20
2.0
 30
50.0
 11
0.0
 21
3.5
 31
50.0
  0
LINE
  5
1FF
330
1CB
100
AcDbEntity
  8
Livello 01
100
AcDbLine
 10
-3.45651558654087
 20
0.5500000000000002
 30
52.05000000000013
 11
3.45651558654087
 21
0.550000000000001
 31
52.05000000000013
  0
LINE
  5
200
330
1CB
100
AcDbEntity
  8
Livello 01
100
AcDbLine
 10
-0.0000000000000422
 20
0.5500000000000005
 30
51.3
 11
-0.0000000000000422
 21
0.5500000000000005
 31
52.8
  0
LINE
  5
201
330
1CB
100
AcDbEntity
  8
Livello 01
100
AcDbLine
 10
0.0000000000000422
 20
-0.550000000000001
 30
51.3
 11
0.0000000000000422
 21
-0.550000000000001
 31
52.8
  0
LINE
  5
202
330
1CB
100
AcDbEntity
  8
Livello 01
100
AcDbLine
 10
-3.45651558654087
 20
-0.550000000000001
 30
52.05000000000013
 11
3.456515586540871
 21
-0.550000000000001
 31
52.05000000000013
  0
LINE
  5
203
330
1CB
100
AcDbEntity
  8
Livello 01
100
AcDbLine
 10
-3.499999999999998
 20
0.0
 30
51.3
 11
3.499999999999998
 21
0.0
 31
51.3
  0
LINE
  5
204
330
1CB
100
AcDbEntity
  8
Livello 01
100
AcDbLine
 10
0.0
 20
-0.5500000000000012
 30
51.3
 11
0.0
 21
0.5500000000000006
 31
51.3
  0
ARC
  5
205
330
1CB
100
AcDbEntity
  8
Livello 01
100
AcDbCircle
 10
-3.3
 20
52.6
 30
0.0
 40
0.2
210
1.0
220
0.0
230
0.0
100
AcDbArc
 50
90.00000000000026
 51
180.0
  0
ARC
  5
206
330
1CB
100
AcDbEntity
  8
Livello 01
100
AcDbCircle
 10
-3.3
 20
52.6
 30
0.0
 40
0.2
210
-1.0
220
0.0
230
0.0
100
AcDbArc
 50
90.00000000000026
 51
180.0
  0
ENDBLK
  5
208
330
1CB
100
AcDbEntity
  8
0
100
AcDbBlockEnd
  0
BLOCK
  5
244
330
20A
100
AcDbEntity
  8
0
100
AcDbBlockBegin
  2
10VI1266000
 70
     0
 10
0.0
 20
0.0
 30
0.0
  3
10VI1266000
  1

  0
SPLINE
  5
20B
330
20A
100
AcDbEntity
  8
Livello 01
100
AcDbSpline
210
0.0
220
0.0
230
1.0
 70
    24
 71
     2
 72
     6
 73
     3
 74
     0
 42
0.0000000001
 43
0.0000000001
 40
-1.154700538379246
 40
-1.154700538379246
 40
-1.154700538379246
 40
0.0
 40
0.0
 40
0.0
 10
0.577350269189626
 20
0.999999999999987
 30
0.0
 10
0.000000000000003
 20
0.9999999999999856
 30
0.0
 10
-0.57735026918962
 20
0.999999999999984
 30
0.0
  0
SPLINE
  5
20C
330
20A
100
AcDbEntity
  8
Livello 01
100
AcDbSpline
210
0.0
220
0.0
230
1.0
 70
    24
 71
     2
 72
     6
 73
     3
 74
     0
 42
0.0000000001
 43
0.0000000001
 40
-1.154700538379246
 40
-1.154700538379246
 40
-1.154700538379246
 40
0.0
 40
0.0
 40
0.0
 10
-0.577350269189659
 20
-1.00000000000001
 30
0.0
 10
-0.000000000000036
 20
-1.00000000000001
 30
0.0
 10
0.577350269189587
 20
-1.00000000000001
 30
0.0
  0
CIRCLE
  5
20D
330
20A
100
AcDbEntity
  8
Livello 01
100
AcDbCircle
 10
0.0
 20
0.0
 30
-2.2
 40
2.0
  0
LINE
  5
20E
330
20A
100
AcDbEntity
  8
Livello 01
100
AcDbLine
 10
2.0
 20
0.0
 30
-2.2
 11
2.0
 21
0.0
 31
-0.3499999999999996
  0
SPLINE
  5
20F
330
20A
100
AcDbEntity
  8
Livello 01
100
AcDbSpline
210
0.0
220
0.0
230
1.0
 70
    24
 71
     2
 72
     6
 73
     3
 74
     0
 42
0.0000000001
 43
0.0000000001
 40
0.0
 40
0.0
 40
0.0
 40
1.154700538379248
 40
1.154700538379248
 40
1.154700538379248
 10
-1.15470053837926
 20
0.0
 30
0.0
 10
-0.8660254037844595
 20
-0.500000000000005
 30
0.0
 10
-0.577350269189659
 20
-1.00000000000001
 30
0.0
  0
SPLINE
  5
210
330
20A
100
AcDbEntity
  8
Livello 01
100
AcDbSpline
210
0.0
220
0.0
230
1.0
 70
    24
 71
     2
 72
     6
 73
     3
 74
     0
 42
0.0000000001
 43
0.0000000001
 40
0.0
 40
0.0
 40
0.0
 40
2.0
 40
2.0
 40
2.0
 10
-0.577350269189659
 20
-1.00000000000001
 30
0.0
 10
-0.577350269189659
 20
-1.00000000000001
 30
-1.0
 10
-0.577350269189659
 20
-1.00000000000001
 30
-2.0
  0
SPLINE
  5
211
330
20A
100
AcDbEntity
  8
Livello 01
100
AcDbSpline
210
0.0
220
0.0
230
1.0
 70
    24
 71
     2
 72
     6
 73
     3
 74
     0
 42
0.0000000001
 43
0.0000000001
 40
0.0
 40
0.0
 40
0.0
 40
1.154700538379248
 40
1.154700538379248
 40
1.154700538379248
 10
-0.577350269189659
 20
-1.00000000000001
 30
-2.0
 10
-0.8660254037844595
 20
-0.500000000000005
 30
-2.0
 10
-1.15470053837926
 20
0.0
 30
-2.0
  0
SPLINE
  5
212
330
20A
100
AcDbEntity
  8
Livello 01
100
AcDbSpline
210
0.0
220
0.0
230
1.0
 70
    24
 71
     2
 72
     6
 73
     3
 74
     0
 42
0.0000000001
 43
0.0000000001
 40
0.0
 40
0.0
 40
0.0
 40
2.0
 40
2.0
 40
2.0
 10
-1.15470053837926
 20
0.0
 30
-2.0
 10
-1.15470053837926
 20
0.0
 30
-1.0
 10
-1.15470053837926
 20
0.0
 30
0.0
  0
SPLINE
  5
213
330
20A
100
AcDbEntity
  8
Livello 01
100
AcDbSpline
210
0.0
220
0.0
230
1.0
 70
    24
 71
     2
 72
     6
 73
     3
 74
     0
 42
0.0000000001
 43
0.0000000001
 40
0.0
 40
0.0
 40
0.0
 40
1.154700538379245
 40
1.154700538379245
 40
1.154700538379245
 10
-0.57735026918962
 20
0.999999999999984
 30
0.0
 10
-0.8660254037844399
 20
0.499999999999992
 30
0.0
 10
-1.15470053837926
 20
0.0
 30
0.0
  0
SPLINE
  5
214
330
20A
100
AcDbEntity
  8
Livello 01
100
AcDbSpline
210
0.0
220
0.0
230
1.0
 70
    24
 71
     2
 72
     6
 73
     3
 74
     0
 42
0.0000000001
 43
0.0000000001
 40
0.0
 40
0.0
 40
0.0
 40
1.154700538379245
 40
1.154700538379245
 40
1.154700538379245
 10
-1.15470053837926
 20
0.0
 30
-2.0
 10
-0.8660254037844399
 20
0.499999999999992
 30
-2.0
 10
-0.57735026918962
 20
0.999999999999984
 30
-2.0
  0
SPLINE
  5
215
330
20A
100
AcDbEntity
  8
Livello 01
100
AcDbSpline
210
0.0
220
0.0
230
1.0
 70
    24
 71
     2
 72
     6
 73
     3
 74
     0
 42
0.0000000001
 43
0.0000000001
 40
0.0
 40
0.0
 40
0.0
 40
2.0
 40
2.0
 40
2.0
 10
-0.57735026918962
 20
0.999999999999984
 30
-2.0
 10
-0.57735026918962
 20
0.999999999999984
 30
-1.0
 10
-0.57735026918962
 20
0.999999999999984
 30
0.0
  0
SPLINE
  5
216
330
20A
100
AcDbEntity
  8
Livello 01
100
AcDbSpline
210
0.0
220
0.0
230
1.0
 70
    24
 71
     2
 72
     6
 73
     3
 74
     0
 42
0.0000000001
 43
0.0000000001
 40
0.0
 40
0.0
 40
0.0
 40
1.154700538379246
 40
1.154700538379246
 40
1.154700538379246
 10
-0.57735026918962
 20
0.999999999999984
 30
-2.0
 10
0.000000000000003
 20
0.9999999999999856
 30
-2.0
 10
0.577350269189626
 20
0.999999999999987
 30
-2.0
  0
SPLINE
  5
217
330
20A
100
AcDbEntity
  8
Livello 01
100
AcDbSpline
210
0.0
220
0.0
230
1.0
 70
    24
 71
     2
 72
     6
 73
     3
 74
     0
 42
0.0000000001
 43
0.0000000001
 40
0.0
 40
0.0
 40
0.0
 40
2.0
 40
2.0
 40
2.0
 10
0.577350269189626
 20
0.999999999999987
 30
-2.0
 10
0.577350269189626
 20
0.999999999999987
 30
-1.0
 10
0.577350269189626
 20
0.999999999999987
 30
0.0
  0
SPLINE
  5
218
330
20A
100
AcDbEntity
  8
Livello 01
100
AcDbSpline
210
0.0
220
0.0
230
1.0
 70
    24
 71
     2
 72
     6
 73
     3
 74
     0
 42
0.0000000001
 43
0.0000000001
 40
0.0
 40
0.0
 40
0.0
 40
1.154700538379249
 40
1.154700538379249
 40
1.154700538379249
 10
1.15470053837923
 20
-0.0000000000000228
 30
0.0
 10
0.8660254037844279
 20
0.4999999999999821
 30
0.0
 10
0.577350269189626
 20
0.999999999999987
 30
0.0
  0
SPLINE
  5
219
330
20A
100
AcDbEntity
  8
Livello 01
100
AcDbSpline
210
0.0
220
0.0
230
1.0
 70
    24
 71
     2
 72
     6
 73
     3
 74
     0
 42
0.0000000001
 43
0.0000000001
 40
0.0
 40
0.0
 40
0.0
 40
1.154700538379249
 40
1.154700538379249
 40
1.154700538379249
 10
0.577350269189626
 20
0.999999999999987
 30
-2.0
 10
0.8660254037844279
 20
0.4999999999999821
 30
-2.0
 10
1.15470053837923
 20
-0.0000000000000228
 30
-2.0
  0
SPLINE
  5
21A
330
20A
100
AcDbEntity
  8
Livello 01
100
AcDbSpline
210
0.0
220
0.0
230
1.0
 70
    24
 71
     2
 72
     6
 73
     3
 74
     0
 42
0.0000000001
 43
0.0000000001
 40
0.0
 40
0.0
 40
0.0
 40
2.0
 40
2.0
 40
2.0
 10
1.15470053837923
 20
-0.0000000000000228
 30
-2.0
 10
1.15470053837923
 20
-0.0000000000000228
 30
-1.0
 10
1.15470053837923
 20
-0.0000000000000228
 30
0.0
  0
SPLINE
  5
21B
330
20A
100
AcDbEntity
  8
Livello 01
100
AcDbSpline
210
0.0
220
0.0
230
1.0
 70
    24
 71
     2
 72
     6
 73
     3
 74
     0
 42
0.0000000001
 43
0.0000000001
 40
0.0
 40
0.0
 40
0.0
 40
1.154700538379249
 40
1.154700538379249
 40
1.154700538379249
 10
0.577350269189587
 20
-1.00000000000001
 30
0.0
 10
0.8660254037844084
 20
-0.5000000000000164
 30
0.0
 10
1.15470053837923
 20
-0.0000000000000228
 30
0.0
  0
SPLINE
  5
21C
330
20A
100
AcDbEntity
  8
Livello 01
100
AcDbSpline
210
0.0
220
0.0
230
1.0
 70
    24
 71
     2
 72
     6
 73
     3
 74
     0
 42
0.0000000001
 43
0.0000000001
 40
0.0
 40
0.0
 40
0.0
 40
1.154700538379249
 40
1.154700538379249
 40
1.154700538379249
 10
1.15470053837923
 20
-0.0000000000000228
 30
-2.0
 10
0.8660254037844084
 20
-0.5000000000000164
 30
-2.0
 10
0.577350269189587
 20
-1.00000000000001
 30
-2.0
  0
SPLINE
  5
21D
330
20A
100
AcDbEntity
  8
Livello 01
100
AcDbSpline
210
0.0
220
0.0
230
1.0
 70
    24
 71
     2
 72
     6
 73
     3
 74
     0
 42
0.0000000001
 43
0.0000000001
 40
0.0
 40
0.0
 40
0.0
 40
2.0
 40
2.0
 40
2.0
 10
0.577350269189587
 20
-1.00000000000001
 30
-2.0
 10
0.577350269189587
 20
-1.00000000000001
 30
-1.0
 10
0.577350269189587
 20
-1.00000000000001
 30
0.0
  0
SPLINE
  5
21E
330
20A
100
AcDbEntity
  8
Livello 01
100
AcDbSpline
210
0.0
220
0.0
230
1.0
 70
    24
 71
     2
 72
     6
 73
     3
 74
     0
 42
0.0000000001
 43
0.0000000001
 40
0.0
 40
0.0
 40
0.0
 40
1.154700538379246
 40
1.154700538379246
 40
1.154700538379246
 10
0.577350269189587
 20
-1.00000000000001
 30
-2.0
 10
-0.000000000000036
 20
-1.00000000000001
 30
-2.0
 10
-0.577350269189659
 20
-1.00000000000001
 30
-2.0
  0
CIRCLE
  5
21F
330
20A
100
AcDbEntity
  8
Livello 01
100
AcDbCircle
 10
0.0
 20
0.0
 30
0.0
 40
1.65
210
0.0
220
0.0
230
-1.0
  0
ARC
  5
220
330
20A
100
AcDbEntity
  8
Livello 01
100
AcDbCircle
 10
0.0
 20
0.0
 30
-0.35
 40
2.0
100
AcDbArc
 50
180.0
 51
0.000000000000007
  0
LINE
  5
221
330
20A
100
AcDbEntity
  8
Livello 01
100
AcDbLine
 10
-1.65
 20
0.0
 30
0.0000000000000002
 11
-2.0
 21
0.0
 31
-0.3499999999999999
  0
ARC
  5
222
330
20A
100
AcDbEntity
  8
Livello 01
100
AcDbCircle
 10
0.0
 20
0.0
 30
-0.35
 40
2.0
100
AcDbArc
 50
0.000000000000007
 51
180.0
  0
CIRCLE
  5
223
330
20A
100
AcDbEntity
  8
Livello 01
100
AcDbCircle
 10
0.0
 20
0.0
 30
-4.0
 40
0.2
  0
LINE
  5
224
330
20A
100
AcDbEntity
  8
Livello 01
100
AcDbLine
 10
0.1999999999999998
 20
0.0
 30
-4.0
 11
2.000000000000001
 21
0.0
 31
-2.200000000000001
  0
LINE
  5
225
330
20A
100
AcDbEntity
  8
Livello 01
100
AcDbLine
 10
1.65
 20
0.0
 30
0.0
 11
1.154700538379216
 21
0.0
 31
0.0
  0
LINE
  5
226
330
20A
100
AcDbEntity
  8
Livello 01
100
AcDbLine
 10
-1.154700538379259
 20
0.0
 30
0.0
 11
-1.65
 21
0.0
 31
0.0
  0
LINE
  5
227
330
20A
100
AcDbEntity
  8
Livello 01
100
AcDbLine
 10
0.0
 20
-1.65
 30
0.0
 11
0.0
 21
-1.00000000000001
 31
0.0
  0
LINE
  5
228
330
20A
100
AcDbEntity
  8
Livello 01
100
AcDbLine
 10
0.0
 20
0.9999999999999856
 30
0.0
 11
0.0
 21
1.65
 31
0.0
  0
CIRCLE
  5
229
330
20A
100
AcDbEntity
  8
Livello 01
100
AcDbCircle
 10
0.0
 20
0.0
 30
-1.275
 40
2.0
  0
LINE
  5
22A
330
20A
100
AcDbEntity
  8
Livello 01
100
AcDbLine
 10
0.0
 20
2.0
 30
-2.2
 11
0.0
 21
2.0
 31
-0.3500000000000001
  0
LINE
  5
22B
330
20A
100
AcDbEntity
  8
Livello 01
100
AcDbLine
 10
-2.0
 20
0.0
 30
-2.2
 11
-2.0
 21
0.0
 31
-0.3500000000000001
  0
LINE
  5
22C
330
20A
100
AcDbEntity
  8
Livello 01
100
AcDbLine
 10
0.0
 20
-2.0
 30
-2.2
 11
0.0
 21
-2.0
 31
-0.3500000000000001
  0
LINE
  5
22D
330
20A
100
AcDbEntity
  8
Livello 01
100
AcDbLine
 10
-0.5773502691896568
 20
-1.000000000000009
 30
-1.0
 11
-1.15470053837926
 21
0.0
 31
-1.0
  0
LINE
  5
22E
330
20A
100
AcDbEntity
  8
Livello 01
100
AcDbLine
 10
-0.8660254037844584
 20
-0.5000000000000043
 30
-2.0
 11
-0.8660254037844584
 21
-0.5000000000000043
 31
-0.0000000000000001
  0
LINE
  5
22F
330
20A
100
AcDbEntity
  8
Livello 01
100
AcDbLine
 10
-1.15470053837926
 20
0.0
 30
-1.0
 11
-0.5773502691896188
 21
0.9999999999999835
 31
-1.0
  0
LINE
  5
230
330
20A
100
AcDbEntity
  8
Livello 01
100
AcDbLine
 10
-0.8660254037844393
 20
0.4999999999999917
 30
-2.0
 11
-0.8660254037844393
 21
0.4999999999999917
 31
-0.0000000000000001
  0
LINE
  5
231
330
20A
100
AcDbEntity
  8
Livello 01
100
AcDbLine
 10
-0.5773502691896201
 20
0.9999999999999872
 30
-1.0
 11
0.577350269189626
 21
0.9999999999999871
 31
-1.0
  0
LINE
  5
232
330
20A
100
AcDbEntity
  8
Livello 01
100
AcDbLine
 10
0.000000000000003
 20
0.9999999999999871
 30
-2.0
 11
0.000000000000003
 21
0.9999999999999871
 31
-0.0000000000000001
  0
LINE
  5
233
330
20A
100
AcDbEntity
  8
Livello 01
100
AcDbLine
 10
0.5773502691896262
 20
0.9999999999999871
 30
-1.0
 11
1.15470053837923
 21
-0.0000000000000227
 31
-1.0
  0
LINE
  5
234
330
20A
100
AcDbEntity
  8
Livello 01
100
AcDbLine
 10
0.866025403784428
 20
0.4999999999999821
 30
-2.0
 11
0.866025403784428
 21
0.4999999999999821
 31
-0.0000000000000001
  0
LINE
  5
235
330
20A
100
AcDbEntity
  8
Livello 01
100
AcDbLine
 10
1.15470053837923
 20
-0.0000000000000228
 30
-1.0
 11
0.5773502691895874
 21
-1.00000000000001
 31
-1.0
  0
LINE
  5
236
330
20A
100
AcDbEntity
  8
Livello 01
100
AcDbLine
 10
0.8660254037844086
 20
-0.5000000000000164
 30
-2.0
 11
0.8660254037844086
 21
-0.5000000000000164
 31
-0.0000000000000001
  0
LINE
  5
237
330
20A
100
AcDbEntity
  8
Livello 01
100
AcDbLine
 10
0.577350269189587
 20
-1.00000000000001
 30
-1.0
 11
-0.577350269189659
 21
-1.00000000000001
 31
-1.0
  0
LINE
  5
238
330
20A
100
AcDbEntity
  8
Livello 01
100
AcDbLine
 10
-0.0000000000000359
 20
-1.00000000000001
 30
-2.0
 11
-0.0000000000000359
 21
-1.00000000000001
 31
-0.0000000000000001
  0
LINE
  5
239
330
20A
100
AcDbEntity
  8
Livello 01
100
AcDbLine
 10
1.154700538379223
 20
-0.0000000000000114
 30
-2.0
 11
-1.154700538379253
 21
-0.0000000000000114
 31
-2.0
  0
LINE
  5
23A
330
20A
100
AcDbEntity
  8
Livello 01
100
AcDbLine
 10
-0.0000000000000151
 20
-1.00000000000001
 30
-2.0
 11
-0.0000000000000151
 21
0.9999999999999855
 31
-2.0
  0
LINE
  5
23B
330
20A
100
AcDbEntity
  8
Livello 01
100
AcDbLine
 10
0.0
 20
1.65
 30
0.0000000000000002
 11
0.0
 21
2.0
 31
-0.35
  0
LINE
  5
23C
330
20A
100
AcDbEntity
  8
Livello 01
100
AcDbLine
 10
1.65
 20
0.0
 30
0.0000000000000002
 11
2.0
 21
0.0
 31
-0.35
  0
LINE
  5
23D
330
20A
100
AcDbEntity
  8
Livello 01
100
AcDbLine
 10
0.0
 20
-1.65
 30
0.0000000000000002
 11
0.0
 21
-2.0
 31
-0.35
  0
CIRCLE
  5
23E
330
20A
100
AcDbEntity
  8
Livello 01
100
AcDbCircle
 10
0.0
 20
0.0
 30
-3.07
 40
1.130000000000001
  0
LINE
  5
23F
330
20A
100
AcDbEntity
  8
Livello 01
100
AcDbLine
 10
0.0
 20
0.1999999999999998
 30
-4.0
 11
0.0
 21
2.000000000000001
 31
-2.200000000000001
  0
LINE
  5
240
330
20A
100
AcDbEntity
  8
Livello 01
100
AcDbLine
 10
-0.1999999999999998
 20
0.0
 30
-4.0
 11
-2.000000000000001
 21
0.0
 31
-2.200000000000001
  0
LINE
  5
241
330
20A
100
AcDbEntity
  8
Livello 01
100
AcDbLine
 10
0.0
 20
-0.1999999999999998
 30
-4.0
 11
0.0
 21
-2.000000000000001
 31
-2.200000000000001
  0
LINE
  5
242
330
20A
100
AcDbEntity
  8
Livello 01
100
AcDbLine
 10
0.2000000000000001
 20
0.0
 30
-4.0
 11
-0.2000000000000001
 21
0.0
 31
-4.0
  0
LINE
  5
243
330
20A
100
AcDbEntity
  8
Livello 01
100
AcDbLine
 10
0.0
 20
-0.2000000000000001
 30
-4.0
 11
0.0
 21
0.2000000000000001
 31
-4.0
  0
ENDBLK
  5
245
330
20A
100
AcDbEntity
  8
0
100
AcDbBlockEnd
  0
ENDSEC
  0
SECTION
  2
ENTITIES
  0
INSERT
  5
24A
330
1F
100
AcDbEntity
  8
Livello 01
100
AcDbBlockReference
  2
3305Y408-A0
 10
0.0
 20
0.0
 30
0.0
  0
ENDSEC
  0
SECTION
  2
OBJECTS
  0
DICTIONARY
  5
C
330
0
100
AcDbDictionary
281
     1
  3
ACAD_DETAILVIEWSTYLE
350
286
  3
ACAD_GROUP
350
D
  3
ACAD_LAYOUT
350
1A
  3
ACAD_MATERIAL
350
43
  3
ACAD_MLEADERSTYLE
350
5B
  3
ACAD_MLINESTYLE
350
17
  3
ACAD_PLOTSETTINGS
350
19
  3
ACAD_PLOTSTYLENAME
350
E
  3
ACAD_SCALELIST
350
47
  3
ACAD_SECTIONVIEWSTYLE
350
287
  3
ACAD_TABLESTYLE
350
59
  3
ACAD_VISUALSTYLE
350
2A
  3
ACDB_RECOMPOSE_DATA
350
283
  3
AcDbVariableDictionary
350
24B
  0
SUN
  5
5D
330
29
100
AcDbSun
 90
        1
290
     0
 63
     7
421
 16777215
 40
1.0
291
     1
 91
  2455826
 92
 54000000
292
     0
 70
     2
 71
   256
280
     1
  0
DICTIONARY
  5
286
102
{ACAD_REACTORS
330
C
102
}
330
C
100
AcDbDictionary
281
     1
  0
DICTIONARY
  5
D
102
{ACAD_REACTORS
330
C
102
}
330
C
100
AcDbDictionary
281
     1
  0
DICTIONARY
  5
1A
102
{ACAD_REACTORS
330
C
102
}
330
C
100
AcDbDictionary
281
     1
  3
Layout1
350
1E
  3
Layout2
350
26
  3
Model
350
22
  0
DICTIONARY
  5
43
102
{ACAD_REACTORS
330
C
102
}
330
C
100
AcDbDictionary
281
     1
  3
ByBlock
350
45
  3
ByLayer
350
44
  3
Global
350
46
  0
DICTIONARY
  5
5B
102
{ACAD_REACTORS
330
C
102
}
330
C
100
AcDbDictionary
281
     1
  3
Standard
350
5C
  0
DICTIONARY
  5
17
102
{ACAD_REACTORS
330
C
102
}
330
C
100
AcDbDictionary
281
     1
  3
Standard
350
18
  0
DICTIONARY
  5
19
102
{ACAD_REACTORS
330
C
102
}
330
C
100
AcDbDictionary
281
     1
  0
ACDBDICTIONARYWDFLT
  5
E
102
{ACAD_REACTORS
330
C
102
}
330
C
100
AcDbDictionary
281
     1
  3
Normal
350
F
100
AcDbDictionaryWithDefault
340
F
  0
DICTIONARY
  5
47
102
{ACAD_REACTORS
330
C
102
}
330
C
100
AcDbDictionary
281
     1
  3
A0
350
48
  3
A1
350
49
  3
A2
350
4A
  3
A3
350
4B
  3
A4
350
4C
  3
A5
350
4D
  3
A6
350
4E
  3
A7
350
4F
  3
A8
350
50
  3
A9
350
51
  3
B1
350
52
  3
B2
350
53
  3
B3
350
54
  3
B4
350
55
  3
B5
350
56
  3
B6
350
57
  3
B7
350
58
  0
DICTIONARY
  5
287
102
{ACAD_REACTORS
330
C
102
}
330
C
100
AcDbDictionary
281
     1
  0
DICTIONARY
  5
59
102
{ACAD_REACTORS
330
C
102
}
330
C
100
AcDbDictionary
281
     1
  3
Standard
350
5A
  0
DICTIONARY
  5
2A
102
{ACAD_REACTORS
330
C
102
}
330
C
100
AcDbDictionary
281
     1
  3
2dWireframe
350
2F
  3
Basic
350
32
  3
Brighten
350
36
  3
ColorChange
350
3A
  3
Conceptual
350
34
  3
Dim
350
35
  3
EdgeColorOff
350
3D
  3
Facepattern
350
39
  3
Flat
350
2B
  3
FlatWithEdges
350
2C
  3
Gouraud
350
2D
  3
GouraudWithEdges
350
2E
  3
Hidden
350
31
  3
JitterOff
350
3B
  3
Linepattern
350
38
  3
OverhangOff
350
3C
  3
Realistic
350
33
  3
Shaded
350
42
  3
Shaded with edges
350
41
  3
Shades of Gray
350
3E
  3
Sketchy
350
3F
  3
Thicken
350
37
  3
Wireframe
350
30
  3
X-Ray
350
40
  0
XRECORD
  5
283
102
{ACAD_REACTORS
330
C
102
}
330
C
100
AcDbXrecord
280
     1
 90
        1
330
5A
  0
DICTIONARY
  5
24B
102
{ACAD_REACTORS
330
C
102
}
330
C
100
AcDbDictionary
281
     1
  3
CANNOSCALE
350
24C
  3
CMLEADERSTYLE
350
285
  3
CTABLESTYLE
350
284
  3
XCLIPFRAME
350
24D
  0
LAYOUT
  5
1E
102
{ACAD_REACTORS
330
1A
102
}
330
1A
100
AcDbPlotSettings
  1

  2
none_device
  4

  6

 40
0.0
 41
0.0
 42
0.0
 43
0.0
 44
0.0
 45
0.0
 46
0.0
 47
0.0
 48
0.0
 49
0.0
140
0.0
141
0.0
142
1.0
143
1.0
 70
   688
 72
     0
 73
     0
 74
     5
  7

 75
    16
 76
     0
 77
     2
 78
   300
147
1.0
148
0.0
149
0.0
100
AcDbLayout
  1
Layout1
 70
     1
 71
     1
 10
0.0
 20
0.0
 11
12.0
 21
9.0
 12
0.0
 22
0.0
 32
0.0
 14
1.000000000000000E+20
 24
1.000000000000000E+20
 34
1.000000000000000E+20
 15
-1.000000000000000E+20
 25
-1.000000000000000E+20
 35
-1.000000000000000E+20
146
0.0
 13
0.0
 23
0.0
 33
0.0
 16
1.0
 26
0.0
 36
0.0
 17
0.0
 27
1.0
 37
0.0
 76
     0
330
1B
  0
LAYOUT
  5
26
102
{ACAD_REACTORS
330
1A
102
}
330
1A
100
AcDbPlotSettings
  1

  2
none_device
  4

  6

 40
0.0
 41
0.0
 42
0.0
 43
0.0
 44
0.0
 45
0.0
 46
0.0
 47
0.0
 48
0.0
 49
0.0
140
0.0
141
0.0
142
1.0
143
1.0
 70
   688
 72
     0
 73
     0
 74
     5
  7

 75
    16
 76
     0
 77
     2
 78
   300
147
1.0
148
0.0
149
0.0
100
AcDbLayout
  1
Layout2
 70
     1
 71
     2
 10
0.0
 20
0.0
 11
0.0
 21
0.0
 12
0.0
 22
0.0
 32
0.0
 14
0.0
 24
0.0
 34
0.0
 15
0.0
 25
0.0
 35
0.0
146
0.0
 13
0.0
 23
0.0
 33
0.0
 16
1.0
 26
0.0
 36
0.0
 17
0.0
 27
1.0
 37
0.0
 76
     0
330
23
  0
LAYOUT
  5
22
102
{ACAD_REACTORS
330
1A
102
}
330
1A
100
AcDbPlotSettings
  1

  2
none_device
  4
Letter_(8.50_x_11.00_Inches)
  6

 40
6.35
 41
6.35
 42
6.35000508
 43
6.35000508
 44
215.9
 45
279.4
 46
0.0
 47
0.0
 48
0.0
 49
0.0
140
0.0
141
0.0
142
1.0
143
1.0
 70
  1712
 72
     0
 73
     0
 74
     0
  7

 75
     0
 76
     0
 77
     2
 78
   300
147
1.0
148
0.0
149
0.0
100
AcDbLayout
  1
Model
 70
     1
 71
     0
 10
0.0
 20
0.0
 11
12.0
 21
9.0
 12
0.0
 22
0.0
 32
0.0
 14
-32.49999999999974
 24
-32.49999999999985
 34
-64.70000000000002
 15
32.50000000000052
 25
32.50000000000041
 35
26.62999999999991
146
0.0
 13
0.0
 23
0.0
 33
0.0
 16
1.0
 26
0.0
 36
0.0
 17
0.0
 27
1.0
 37
0.0
 76
     0
330
1F
331
29
  0
MATERIAL
  5
45
102
{ACAD_REACTORS
330
43
102
}
330
43
100
AcDbMaterial
  1
ByBlock
 72
     1
 94
      127
  0
MATERIAL
  5
44
102
{ACAD_REACTORS
330
43
102
}
330
43
100
AcDbMaterial
  1
ByLayer
 72
     1
 94
      127
  0
MATERIAL
  5
46
102
{ACAD_REACTORS
330
43
102
}
330
43
100
AcDbMaterial
  1
Global
 72
     1
 94
      127
  0
MLEADERSTYLE
  5
5C
102
{ACAD_REACTORS
330
5B
102
}
102
{ACAD_XDICTIONARY
360
281
102
}
330
5B
100
AcDbMLeaderStyle
170
     2
171
     1
172
     0
 90
        2
 40
0.0
 41
0.0
173
     1
 91
-1056964608
340
14
 92
       -2
290
     1
 42
0.09
291
     1
 43
0.36
  3
Standard
341
0
 44
0.18
300

342
11
174
     1
178
     6
175
     1
176
     0
 93
-1056964608
 45
0.18
292
     0
297
     0
 46
0.18
343
0
 94
-1056964608
 47
1.0
 49
1.0
140
1.0
293
     1
141
0.0
294
     1
177
     0
142
1.0
295
     0
296
     0
143
0.125
1001
ACAD_MLEADERVER
1070
     2
  0
MLINESTYLE
  5
18
102
{ACAD_REACTORS
330
17
102
}
330
17
100
AcDbMlineStyle
  2
Standard
 70
     0
  3

 62
   256
 51
90.0
 52
90.0
 71
     2
 49
0.5
 62
   256
  6
BYLAYER
 49
-0.5
 62
   256
  6
BYLAYER
  0
ACDBPLACEHOLDER
  5
F
102
{ACAD_REACTORS
330
E
102
}
330
E
  0
SCALE
  5
48
102
{ACAD_REACTORS
330
47
102
}
330
47
100
AcDbScale
 70
     0
300
1:1
140
1.0
141
1.0
290
     1
  0
SCALE
  5
49
102
{ACAD_REACTORS
330
47
102
}
330
47
100
AcDbScale
 70
     0
300
1/128" = 1'-0"
140
0.0078125
141
12.0
290
     0
  0
SCALE
  5
4A
102
{ACAD_REACTORS
330
47
102
}
330
47
100
AcDbScale
 70
     0
300
1/64" = 1'-0"
140
0.015625
141
12.0
290
     0
  0
SCALE
  5
4B
102
{ACAD_REACTORS
330
47
102
}
330
47
100
AcDbScale
 70
     0
300
1/32" = 1'-0"
140
0.03125
141
12.0
290
     0
  0
SCALE
  5
4C
102
{ACAD_REACTORS
330
47
102
}
330
47
100
AcDbScale
 70
     0
300
1/16" = 1'-0"
140
0.0625
141
12.0
290
     0
  0
SCALE
  5
4D
102
{ACAD_REACTORS
330
47
102
}
330
47
100
AcDbScale
 70
     0
300
3/32" = 1'-0"
140
0.09375
141
12.0
290
     0
  0
SCALE
  5
4E
102
{ACAD_REACTORS
330
47
102
}
330
47
100
AcDbScale
 70
     0
300
1/8" = 1'-0"
140
0.125
141
12.0
290
     0
  0
SCALE
  5
4F
102
{ACAD_REACTORS
330
47
102
}
330
47
100
AcDbScale
 70
     0
300
3/16" = 1'-0"
140
0.1875
141
12.0
290
     0
  0
SCALE
  5
50
102
{ACAD_REACTORS
330
47
102
}
330
47
100
AcDbScale
 70
     0
300
1/4" = 1'-0"
140
0.25
141
12.0
290
     0
  0
SCALE
  5
51
102
{ACAD_REACTORS
330
47
102
}
330
47
100
AcDbScale
 70
     0
300
3/8" = 1'-0"
140
0.375
141
12.0
290
     0
  0
SCALE
  5
52
102
{ACAD_REACTORS
330
47
102
}
330
47
100
AcDbScale
 70
     0
300
1/2" = 1'-0"
140
0.5
141
12.0
290
     0
  0
SCALE
  5
53
102
{ACAD_REACTORS
330
47
102
}
330
47
100
AcDbScale
 70
     0
300
3/4" = 1'-0"
140
0.75
141
12.0
290
     0
  0
SCALE
  5
54
102
{ACAD_REACTORS
330
47
102
}
330
47
100
AcDbScale
 70
     0
300
1" = 1'-0"
140
1.0
141
12.0
290
     0
  0
SCALE
  5
55
102
{ACAD_REACTORS
330
47
102
}
330
47
100
AcDbScale
 70
     0
300
1-1/2" = 1'-0"
140
1.5
141
12.0
290
     0
  0
SCALE
  5
56
102
{ACAD_REACTORS
330
47
102
}
330
47
100
AcDbScale
 70
     0
300
3" = 1'-0"
140
3.0
141
12.0
290
     0
  0
SCALE
  5
57
102
{ACAD_REACTORS
330
47
102
}
330
47
100
AcDbScale
 70
     0
300
6" = 1'-0"
140
6.0
141
12.0
290
     0
  0
SCALE
  5
58
102
{ACAD_REACTORS
330
47
102
}
330
47
100
AcDbScale
 70
     0
300
1'-0" = 1'-0"
140
12.0
141
12.0
290
     0
  0
TABLESTYLE
  5
5A
102
{ACAD_REACTORS
330
59
102
}
102
{ACAD_XDICTIONARY
360
27E
102
}
330
59
100
AcDbTableStyle
  3
Standard
 70
     0
 71
     0
 40
0.06
 41
0.06
280
     0
281
     0
  7
Standard
140
0.18
170
     2
 62
     0
 63
   257
283
     0
 90
        4
 91
        0
  1

274
    -2
284
     1
 64
     0
275
    -2
285
     1
 65
     0
276
    -2
286
     1
 66
     0
277
    -2
287
     1
 67
     0
278
    -2
288
     1
 68
     0
279
    -2
289
     1
 69
     0
  7
Standard
140
0.25
170
     5
 62
     0
 63
   257
283
     0
 90
        4
 91
        0
  1

274
    -2
284
     1
 64
     0
275
    -2
285
     1
 65
     0
276
    -2
286
     1
 66
     0
277
    -2
287
     1
 67
     0
278
    -2
288
     1
 68
     0
279
    -2
289
     1
 69
     0
  7
Standard
140
0.18
170
     5
 62
     0
 63
   257
283
     0
 90
        4
 91
        0
  1

274
    -2
284
     1
 64
     0
275
    -2
285
     1
 65
     0
276
    -2
286
     1
 66
     0
277
    -2
287
     1
 67
     0
278
    -2
288
     1
 68
     0
279
    -2
289
     1
 69
     0
  0
VISUALSTYLE
  5
2F
102
{ACAD_REACTORS
330
2A
102
}
102
{ACAD_XDICTIONARY
360
256
102
}
330
2A
100
AcDbVisualStyle
  2
2dWireframe
 70
     4
 71
     0
 72
     2
 73
     0
 90
        0
 40
0.6
 41
30.0
 62
     5
 63
     7
421
 16777215
 74
     1
 91
        4
 64
     7
 65
   257
 75
     1
175
     1
 42
1.0
 92
        0
 66
   257
 43
1.0
 76
     1
 77
     6
 78
     2
 67
     7
 79
     5
170
     0
171
     0
290
     0
174
     0
 93
        1
 44
0.0
173
     0
291
     0
 45
0.0
  0
VISUALSTYLE
  5
32
102
{ACAD_REACTORS
330
2A
102
}
102
{ACAD_XDICTIONARY
360
25C
102
}
330
2A
100
AcDbVisualStyle
  2
Basic
 70
     7
 71
     1
 72
     0
 73
     1
 90
        0
 40
0.6
 41
30.0
 62
     5
 63
     7
421
 16777215
 74
     0
 91
        4
 64
     7
 65
   257
 75
     1
175
     1
 42
1.0
 92
        8
 66
     7
 43
1.0
 76
     1
 77
     6
 78
     2
 67
     7
 79
     5
170
     0
171
     0
290
     0
174
     0
 93
        1
 44
0.0
173
     0
291
     1
 45
0.0
  0
VISUALSTYLE
  5
36
102
{ACAD_REACTORS
330
2A
102
}
102
{ACAD_XDICTIONARY
360
264
102
}
330
2A
100
AcDbVisualStyle
  2
Brighten
 70
    12
 71
     2
 72
     2
 73
     0
 90
        0
 40
0.6
 41
30.0
 62
     5
 63
     7
421
 16777215
 74
     1
 91
        4
 64
     7
 65
   257
 75
     1
175
     1
 42
1.0
 92
        8
 66
     7
 43
1.0
 76
     1
 77
     6
 78
     2
 67
     7
 79
     5
170
     0
171
     0
290
     0
174
     0
 93
        1
 44
50.0
173
     0
291
     1
 45
0.0
  0
VISUALSTYLE
  5
3A
102
{ACAD_REACTORS
330
2A
102
}
102
{ACAD_XDICTIONARY
360
26C
102
}
330
2A
100
AcDbVisualStyle
  2
ColorChange
 70
    16
 71
     2
 72
     2
 73
     3
 90
        0
 40
0.6
 41
30.0
 62
     5
 63
     8
421
  8421504
 74
     1
 91
        4
 64
     7
 65
   257
 75
     1
175
     1
 42
1.0
 92
        8
 66
     8
424
  8421504
 43
1.0
 76
     1
 77
     6
 78
     2
 67
     7
 79
     5
170
     0
171
     0
290
     0
174
     0
 93
        1
 44
0.0
173
     0
291
     1
 45
0.0
  0
VISUALSTYLE
  5
34
102
{ACAD_REACTORS
330
2A
102
}
102
{ACAD_XDICTIONARY
360
260
102
}
330
2A
100
AcDbVisualStyle
  2
Conceptual
 70
     9
 71
     3
 72
     2
 73
     0
 90
        0
 40
0.6
 41
30.0
 62
     5
 63
     7
421
 16777215
 74
     2
 91
        2
 64
     7
 65
   257
 75
     1
175
     1
 42
179.0
 92
        8
 66
     7
 43
1.0
 76
     1
 77
     6
 78
     2
 67
     7
 79
     3
170
     0
171
     0
290
     0
174
     0
 93
        1
 44
0.0
173
     0
291
     0
 45
0.0
  0
VISUALSTYLE
  5
35
102
{ACAD_REACTORS
330
2A
102
}
102
{ACAD_XDICTIONARY
360
262
102
}
330
2A
100
AcDbVisualStyle
  2
Dim
 70
    11
 71
     2
 72
     2
 73
     0
 90
        0
 40
0.6
 41
30.0
 62
     5
 63
     7
421
 16777215
 74
     1
 91
        4
 64
     7
 65
   257
 75
     1
175
     1
 42
1.0
 92
        8
 66
     7
 43
1.0
 76
     1
 77
     6
 78
     2
 67
     7
 79
     5
170
     0
171
     0
290
     0
174
     0
 93
        1
 44
-50.0
173
     0
291
     1
 45
0.0
  0
VISUALSTYLE
  5
3D
102
{ACAD_REACTORS
330
2A
102
}
102
{ACAD_XDICTIONARY
360
272
102
}
330
2A
100
AcDbVisualStyle
  2
EdgeColorOff
 70
    22
 71
     2
 72
     2
 73
     0
 90
        0
 40
0.6
 41
30.0
 62
     5
 63
     7
421
 16777215
 74
     1
 91
        4
 64
     7
 65
   257
 75
     1
175
     1
 42
1.0
 92
        8
 66
     7
 43
1.0
 76
     1
 77
     6
 78
     2
 67
     7
 79
     5
170
     0
171
     0
290
     0
174
     0
 93
        1
 44
0.0
173
     0
291
     1
 45
0.0
  0
VISUALSTYLE
  5
39
102
{ACAD_REACTORS
330
2A
102
}
102
{ACAD_XDICTIONARY
360
26A
102
}
330
2A
100
AcDbVisualStyle
  2
Facepattern
 70
    15
 71
     2
 72
     2
 73
     0
 90
        0
 40
0.6
 41
30.0
 62
     5
 63
     7
421
 16777215
 74
     1
 91
        4
 64
     7
 65
   257
 75
     1
175
     1
 42
1.0
 92
        8
 66
     7
 43
1.0
 76
     1
 77
     6
 78
     2
 67
     7
 79
     5
170
     0
171
     0
290
     0
174
     0
 93
        1
 44
0.0
173
     0
291
     1
 45
0.0
  0
VISUALSTYLE
  5
2B
102
{ACAD_REACTORS
330
2A
102
}
102
{ACAD_XDICTIONARY
360
24E
102
}
330
2A
100
AcDbVisualStyle
  2
Flat
 70
     0
 71
     2
 72
     1
 73
     1
 90
        2
 40
0.6
 41
30.0
 62
     5
 63
     7
421
 16777215
 74
     0
 91
        0
 64
     7
 65
   257
 75
     1
175
     1
 42
1.0
 92
        8
 66
     7
 43
1.0
 76
     1
 77
     6
 78
     2
 67
     7
 79
     5
170
     0
171
     0
290
     0
174
     0
 93
       13
 44
0.0
173
     0
291
     1
 45
0.0
  0
VISUALSTYLE
  5
2C
102
{ACAD_REACTORS
330
2A
102
}
102
{ACAD_XDICTIONARY
360
250
102
}
330
2A
100
AcDbVisualStyle
  2
FlatWithEdges
 70
     1
 71
     2
 72
     1
 73
     1
 90
        2
 40
0.6
 41
30.0
 62
     5
 63
     7
421
 16777215
 74
     1
 91
        0
 64
     7
 65
   257
 75
     1
175
     1
 42
1.0
 92
        0
 66
   257
 43
1.0
 76
     1
 77
     6
 78
     2
 67
     7
 79
     5
170
     0
171
     0
290
     0
174
     0
 93
       13
 44
0.0
173
     0
291
     1
 45
0.0
  0
VISUALSTYLE
  5
2D
102
{ACAD_REACTORS
330
2A
102
}
102
{ACAD_XDICTIONARY
360
252
102
}
330
2A
100
AcDbVisualStyle
  2
Gouraud
 70
     2
 71
     2
 72
     2
 73
     1
 90
        2
 40
0.6
 41
30.0
 62
     5
 63
     7
421
 16777215
 74
     0
 91
        0
 64
     7
 65
   257
 75
     1
175
     1
 42
1.0
 92
        0
 66
     7
 43
1.0
 76
     1
 77
     6
 78
     2
 67
     7
 79
     5
170
     0
171
     0
290
     0
174
     0
 93
       13
 44
0.0
173
     0
291
     1
 45
0.0
  0
VISUALSTYLE
  5
2E
102
{ACAD_REACTORS
330
2A
102
}
102
{ACAD_XDICTIONARY
360
254
102
}
330
2A
100
AcDbVisualStyle
  2
GouraudWithEdges
 70
     3
 71
     2
 72
     2
 73
     1
 90
        2
 40
0.6
 41
30.0
 62
     5
 63
     7
421
 16777215
 74
     1
 91
        0
 64
     7
 65
   257
 75
     1
175
     1
 42
1.0
 92
        0
 66
   257
 43
1.0
 76
     1
 77
     6
 78
     2
 67
     7
 79
     5
170
     0
171
     0
290
     0
174
     0
 93
       13
 44
0.0
173
     0
291
     1
 45
0.0
  0
VISUALSTYLE
  5
31
102
{ACAD_REACTORS
330
2A
102
}
102
{ACAD_XDICTIONARY
360
25A
102
}
330
2A
100
AcDbVisualStyle
  2
Hidden
 70
     6
 71
     1
 72
     2
 73
     2
 90
        0
 40
0.6
 41
30.0
 62
     5
 63
     7
421
 16777215
 74
     2
 91
        2
 64
     7
 65
   257
 75
     2
175
     1
 42
40.0
 92
        0
 66
   257
 43
1.0
 76
     1
 77
     6
 78
     2
 67
     7
 79
     3
170
     0
171
     0
290
     0
174
     0
 93
        1
 44
0.0
173
     0
291
     0
 45
0.0
  0
VISUALSTYLE
  5
3B
102
{ACAD_REACTORS
330
2A
102
}
102
{ACAD_XDICTIONARY
360
26E
102
}
330
2A
100
AcDbVisualStyle
  2
JitterOff
 70
    20
 71
     2
 72
     2
 73
     0
 90
        0
 40
0.6
 41
30.0
 62
     5
 63
     7
421
 16777215
 74
     1
 91
        4
 64
     7
 65
   257
 75
     1
175
     1
 42
1.0
 92
       10
 66
     7
 43
1.0
 76
     1
 77
     6
 78
     2
 67
     7
 79
     5
170
     0
171
     0
290
     0
174
     0
 93
        1
 44
0.0
173
     0
291
     1
 45
0.0
  0
VISUALSTYLE
  5
38
102
{ACAD_REACTORS
330
2A
102
}
102
{ACAD_XDICTIONARY
360
268
102
}
330
2A
100
AcDbVisualStyle
  2
Linepattern
 70
    14
 71
     2
 72
     2
 73
     0
 90
        0
 40
0.6
 41
30.0
 62
     5
 63
     7
421
 16777215
 74
     1
 91
        4
 64
     7
 65
   257
 75
     7
175
     7
 42
1.0
 92
        8
 66
     7
 43
1.0
 76
     1
 77
     6
 78
     2
 67
     7
 79
     5
170
     0
171
     0
290
     0
174
     0
 93
        1
 44
0.0
173
     0
291
     1
 45
0.0
  0
VISUALSTYLE
  5
3C
102
{ACAD_REACTORS
330
2A
102
}
102
{ACAD_XDICTIONARY
360
270
102
}
330
2A
100
AcDbVisualStyle
  2
OverhangOff
 70
    21
 71
     2
 72
     2
 73
     0
 90
        0
 40
0.6
 41
30.0
 62
     5
 63
     7
421
 16777215
 74
     1
 91
        4
 64
     7
 65
   257
 75
     1
175
     1
 42
1.0
 92
        9
 66
     7
 43
1.0
 76
     1
 77
     6
 78
     2
 67
     7
 79
     5
170
     0
171
     0
290
     0
174
     0
 93
        1
 44
0.0
173
     0
291
     1
 45
0.0
  0
VISUALSTYLE
  5
33
102
{ACAD_REACTORS
330
2A
102
}
102
{ACAD_XDICTIONARY
360
25E
102
}
330
2A
100
AcDbVisualStyle
  2
Realistic
 70
     8
 71
     2
 72
     3
 73
     0
 90
        2
 40
0.6
 41
30.0
 62
     5
 63
     7
421
 16777215
 74
     0
 91
        0
 64
     7
 65
   257
 75
     1
175
     1
 42
1.0
 92
        8
 66
   257
 43
1.0
 76
     1
 77
     6
 78
     2
 67
     7
 79
     3
170
     0
171
     0
290
     0
174
     0
 93
       13
 44
0.0
173
     0
291
     0
 45
0.0
  0
VISUALSTYLE
  5
42
102
{ACAD_REACTORS
330
2A
102
}
102
{ACAD_XDICTIONARY
360
27C
102
}
330
2A
100
AcDbVisualStyle
  2
Shaded
 70
    27
 71
     2
 72
     2
 73
     1
 90
        2
 40
0.6
 41
30.0
 62
     5
 63
     7
421
 16777215
 74
     0
 91
        4
 64
     7
 65
   257
 75
     1
175
     1
 42
1.0
 92
        8
 66
   257
 43
1.0
 76
     1
 77
     6
 78
     2
 67
     8
425
  7895160
 79
     3
170
     0
171
     0
290
     0
174
     0
 93
        5
 44
0.0
173
     0
291
     0
 45
0.0
  0
VISUALSTYLE
  5
41
102
{ACAD_REACTORS
330
2A
102
}
102
{ACAD_XDICTIONARY
360
27A
102
}
330
2A
100
AcDbVisualStyle
  2
Shaded with edges
 70
    26
 71
     2
 72
     2
 73
     1
 90
        2
 40
0.6
 41
30.0
 62
     5
 63
     7
421
 16777215
 74
     1
 91
       10
 64
     7
 65
   257
 75
     2
175
     1
 42
1.0
 92
        8
 66
   257
 43
1.0
 76
     1
 77
     6
 78
     2
 67
     7
 79
     3
170
     0
171
     0
290
     0
174
     0
 93
        5
 44
0.0
173
     0
291
     0
 45
0.0
  0
VISUALSTYLE
  5
3E
102
{ACAD_REACTORS
330
2A
102
}
102
{ACAD_XDICTIONARY
360
274
102
}
330
2A
100
AcDbVisualStyle
  2
Shades of Gray
 70
    23
 71
     2
 72
     2
 73
     3
 90
        0
 40
0.6
 41
30.0
 62
     5
 63
     7
421
 16777215
 74
     2
 91
        2
 64
     7
 65
     7
 75
     1
175
     1
 42
40.0
 92
        8
 66
     7
 43
1.0
 76
     1
 77
     6
 78
     2
 67
     7
 79
     3
170
     0
171
     0
290
     0
174
     0
 93
        1
 44
0.0
173
     0
291
     0
 45
0.0
  0
VISUALSTYLE
  5
3F
102
{ACAD_REACTORS
330
2A
102
}
102
{ACAD_XDICTIONARY
360
276
102
}
330
2A
100
AcDbVisualStyle
  2
Sketchy
 70
    24
 71
     1
 72
     2
 73
     2
 90
        0
 40
0.6
 41
30.0
 62
     5
 63
     7
421
 16777215
 74
     2
 91
        2
 64
     7
 65
     7
 75
     1
175
     1
 42
40.0
 92
       11
 66
     7
 43
1.0
 76
     1
 77
     6
 78
     2
 67
     7
 79
     6
170
     0
171
     0
290
     0
174
     0
 93
        1
 44
0.0
173
     0
291
     0
 45
0.0
  0
VISUALSTYLE
  5
37
102
{ACAD_REACTORS
330
2A
102
}
102
{ACAD_XDICTIONARY
360
266
102
}
330
2A
100
AcDbVisualStyle
  2
Thicken
 70
    13
 71
     2
 72
     2
 73
     0
 90
        0
 40
0.6
 41
30.0
 62
     5
 63
     7
421
 16777215
 74
     1
 91
        4
 64
     7
 65
   257
 75
     1
175
     1
 42
1.0
 92
       12
 66
     7
 43
1.0
 76
     1
 77
     6
 78
     2
 67
     7
 79
     5
170
     0
171
     0
290
     0
174
     0
 93
        1
 44
0.0
173
     0
291
     1
 45
0.0
  0
VISUALSTYLE
  5
30
102
{ACAD_REACTORS
330
2A
102
}
102
{ACAD_XDICTIONARY
360
258
102
}
330
2A
100
AcDbVisualStyle
  2
Wireframe
 70
     5
 71
     0
 72
     2
 73
     0
 90
        0
 40
0.6
 41
30.0
 62
     5
 63
     7
421
 16777215
 74
     1
 91
        4
 64
     7
 65
   257
 75
     1
175
     1
 42
1.0
 92
        0
 66
   257
 43
1.0
 76
     1
 77
     6
 78
     2
 67
     7
 79
     3
170
     0
171
     0
290
     0
174
     0
 93
        1
 44
0.0
173
     0
291
     0
 45
0.0
  0
VISUALSTYLE
  5
40
102
{ACAD_REACTORS
330
2A
102
}
102
{ACAD_XDICTIONARY
360
278
102
}
330
2A
100
AcDbVisualStyle
  2
X-Ray
 70
    25
 71
     2
 72
     2
 73
     1
 90
        1
 40
0.5
 41
30.0
 62
     5
 63
     7
421
 16777215
 74
     1
 91
        0
 64
     7
 65
   257
 75
     1
175
     1
 42
1.0
 92
        8
 66
     7
 43
1.0
 76
     1
 77
     6
 78
     2
 67
     7
 79
     3
170
     0
171
     0
290
     0
174
     0
 93
       13
 44
0.0
173
     0
291
     0
 45
0.0
  0
DICTIONARYVAR
  5
24C
102
{ACAD_REACTORS
330
24B
102
}
330
24B
100
DictionaryVariables
280
     0
  1
1:1
  0
DICTIONARYVAR
  5
285
102
{ACAD_REACTORS
330
24B
102
}
330
24B
100
DictionaryVariables
280
     0
  1
Standard
  0
DICTIONARYVAR
  5
284
102
{ACAD_REACTORS
330
24B
102
}
330
24B
100
DictionaryVariables
280
     0
  1
Standard
  0
DICTIONARYVAR
  5
24D
102
{ACAD_REACTORS
330
24B
102
}
330
24B
100
DictionaryVariables
280
     0
  1
2
  0
DICTIONARY
  5
281
330
5C
100
AcDbDictionary
280
     1
281
     1
  3
ACAD_XREC_ROUNDTRIP
360
282
  0
DICTIONARY
  5
27E
330
5A
100
AcDbDictionary
280
     1
281
     1
  3
ACAD_ROUNDTRIP_2008_TABLESTYLE_CELLSTYLEMAP
360
27F
  0
DICTIONARY
  5
256
330
2F
100
AcDbDictionary
280
     1
281
     1
  3
ACAD_XREC_ROUNDTRIP
360
257
  0
DICTIONARY
  5
25C
330
32
100
AcDbDictionary
280
     1
281
     1
  3
ACAD_XREC_ROUNDTRIP
360
25D
  0
DICTIONARY
  5
264
330
36
100
AcDbDictionary
280
     1
281
     1
  3
ACAD_XREC_ROUNDTRIP
360
265
  0
DICTIONARY
  5
26C
330
3A
100
AcDbDictionary
280
     1
281
     1
  3
ACAD_XREC_ROUNDTRIP
360
26D
  0
DICTIONARY
  5
260
330
34
100
AcDbDictionary
280
     1
281
     1
  3
ACAD_XREC_ROUNDTRIP
360
261
  0
DICTIONARY
  5
262
330
35
100
AcDbDictionary
280
     1
281
     1
  3
ACAD_XREC_ROUNDTRIP
360
263
  0
DICTIONARY
  5
272
330
3D
100
AcDbDictionary
280
     1
281
     1
  3
ACAD_XREC_ROUNDTRIP
360
273
  0
DICTIONARY
  5
26A
330
39
100
AcDbDictionary
280
     1
281
     1
  3
ACAD_XREC_ROUNDTRIP
360
26B
  0
DICTIONARY
  5
24E
330
2B
100
AcDbDictionary
280
     1
281
     1
  3
ACAD_XREC_ROUNDTRIP
360
24F
  0
DICTIONARY
  5
250
330
2C
100
AcDbDictionary
280
     1
281
     1
  3
ACAD_XREC_ROUNDTRIP
360
251
  0
DICTIONARY
  5
252
330
2D
100
AcDbDictionary
280
     1
281
     1
  3
ACAD_XREC_ROUNDTRIP
360
253
  0
DICTIONARY
  5
254
330
2E
100
AcDbDictionary
280
     1
281
     1
  3
ACAD_XREC_ROUNDTRIP
360
255
  0
DICTIONARY
  5
25A
330
31
100
AcDbDictionary
280
     1
281
     1
  3
ACAD_XREC_ROUNDTRIP
360
25B
  0
DICTIONARY
  5
26E
330
3B
100
AcDbDictionary
280
     1
281
     1
  3
ACAD_XREC_ROUNDTRIP
360
26F
  0
DICTIONARY
  5
268
330
38
100
AcDbDictionary
280
     1
281
     1
  3
ACAD_XREC_ROUNDTRIP
360
269
  0
DICTIONARY
  5
270
330
3C
100
AcDbDictionary
280
     1
281
     1
  3
ACAD_XREC_ROUNDTRIP
360
271
  0
DICTIONARY
  5
25E
330
33
100
AcDbDictionary
280
     1
281
     1
  3
ACAD_XREC_ROUNDTRIP
360
25F
  0
DICTIONARY
  5
27C
330
42
100
AcDbDictionary
280
     1
281
     1
  3
ACAD_XREC_ROUNDTRIP
360
27D
  0
DICTIONARY
  5
27A
330
41
100
AcDbDictionary
280
     1
281
     1
  3
ACAD_XREC_ROUNDTRIP
360
27B
  0
DICTIONARY
  5
274
330
3E
100
AcDbDictionary
280
     1
281
     1
  3
ACAD_XREC_ROUNDTRIP
360
275
  0
DICTIONARY
  5
276
330
3F
100
AcDbDictionary
280
     1
281
     1
  3
ACAD_XREC_ROUNDTRIP
360
277
  0
DICTIONARY
  5
266
330
37
100
AcDbDictionary
280
     1
281
     1
  3
ACAD_XREC_ROUNDTRIP
360
267
  0
DICTIONARY
  5
258
330
30
100
AcDbDictionary
280
     1
281
     1
  3
ACAD_XREC_ROUNDTRIP
360
259
  0
DICTIONARY
  5
278
330
40
100
AcDbDictionary
280
     1
281
     1
  3
ACAD_XREC_ROUNDTRIP
360
279
  0
XRECORD
  5
282
102
{ACAD_REACTORS
330
281
102
}
330
281
100
AcDbXrecord
280
     1
102
ACAD_ROUNDTRIP_2010_MLEADER_STYLE
  0
CELLSTYLEMAP
  5
27F
102
{ACAD_REACTORS
330
27E
102
}
330
27E
100
AcDbCellStyleMap
 90
        3
300
CELLSTYLE
  1
TABLEFORMAT_BEGIN
 90
        5
170
     1
 91
        0
 92
    32768
 62
   257
 93
        1
300
CONTENTFORMAT
  1
CONTENTFORMAT_BEGIN
 90
        0
 91
        0
 92
        4
 93
        0
300

 40
0.0
140
1.0
 94
        5
 62
     0
340
11
144
0.25
309
CONTENTFORMAT_END
171
     1
301
MARGIN
  1
CELLMARGIN_BEGIN
 40
0.06
 40
0.06
 40
0.06
 40
0.06
 40
0.06
 40
0.06
309
CELLMARGIN_END
 94
        6
 95
        1
302
GRIDFORMAT
  1
GRIDFORMAT_BEGIN
 90
        0
 91
        1
 62
     0
 92
       -2
340
14
 93
        0
 40
0.045
309
GRIDFORMAT_END
 95
        2
302
GRIDFORMAT
  1
GRIDFORMAT_BEGIN
 90
        0
 91
        1
 62
     0
 92
       -2
340
14
 93
        0
 40
0.045
309
GRIDFORMAT_END
 95
        4
302
GRIDFORMAT
  1
GRIDFORMAT_BEGIN
 90
        0
 91
        1
 62
     0
 92
       -2
340
14
 93
        0
 40
0.045
309
GRIDFORMAT_END
 95
        8
302
GRIDFORMAT
  1
GRIDFORMAT_BEGIN
 90
        0
 91
        1
 62
     0
 92
       -2
340
14
 93
        0
 40
0.045
309
GRIDFORMAT_END
 95
       16
302
GRIDFORMAT
  1
GRIDFORMAT_BEGIN
 90
        0
 91
        1
 62
     0
 92
       -2
340
14
 93
        0
 40
0.045
309
GRIDFORMAT_END
 95
       32
302
GRIDFORMAT
  1
GRIDFORMAT_BEGIN
 90
        0
 91
        1
 62
     0
 92
       -2
340
14
 93
        0
 40
0.045
309
GRIDFORMAT_END
309
TABLEFORMAT_END
  1
CELLSTYLE_BEGIN
 90
        1
 91
        1
300
_TITLE
309
CELLSTYLE_END
300
CELLSTYLE
  1
TABLEFORMAT_BEGIN
 90
        5
170
     1
 91
        0
 92
        0
 62
   257
 93
        1
300
CONTENTFORMAT
  1
CONTENTFORMAT_BEGIN
 90
        0
 91
        0
 92
        4
 93
        0
300

 40
0.0
140
1.0
 94
        5
 62
     0
340
11
144
0.18
309
CONTENTFORMAT_END
171
     1
301
MARGIN
  1
CELLMARGIN_BEGIN
 40
0.06
 40
0.06
 40
0.06
 40
0.06
 40
0.06
 40
0.06
309
CELLMARGIN_END
 94
        6
 95
        1
302
GRIDFORMAT
  1
GRIDFORMAT_BEGIN
 90
        0
 91
        1
 62
     0
 92
       -2
340
14
 93
        0
 40
0.045
309
GRIDFORMAT_END
 95
        2
302
GRIDFORMAT
  1
GRIDFORMAT_BEGIN
 90
        0
 91
        1
 62
     0
 92
       -2
340
14
 93
        0
 40
0.045
309
GRIDFORMAT_END
 95
        4
302
GRIDFORMAT
  1
GRIDFORMAT_BEGIN
 90
        0
 91
        1
 62
     0
 92
       -2
340
14
 93
        0
 40
0.045
309
GRIDFORMAT_END
 95
        8
302
GRIDFORMAT
  1
GRIDFORMAT_BEGIN
 90
        0
 91
        1
 62
     0
 92
       -2
340
14
 93
        0
 40
0.045
309
GRIDFORMAT_END
 95
       16
302
GRIDFORMAT
  1
GRIDFORMAT_BEGIN
 90
        0
 91
        1
 62
     0
 92
       -2
340
14
 93
        0
 40
0.045
309
GRIDFORMAT_END
 95
       32
302
GRIDFORMAT
  1
GRIDFORMAT_BEGIN
 90
        0
 91
        1
 62
     0
 92
       -2
340
14
 93
        0
 40
0.045
309
GRIDFORMAT_END
309
TABLEFORMAT_END
  1
CELLSTYLE_BEGIN
 90
        2
 91
        1
300
_HEADER
309
CELLSTYLE_END
300
CELLSTYLE
  1
TABLEFORMAT_BEGIN
 90
        5
170
     1
 91
        0
 92
        0
 62
   257
 93
        1
300
CONTENTFORMAT
  1
CONTENTFORMAT_BEGIN
 90
        0
 91
        0
 92
        4
 93
        0
300

 40
0.0
140
1.0
 94
        2
 62
     0
340
11
144
0.18
309
CONTENTFORMAT_END
171
     1
301
MARGIN
  1
CELLMARGIN_BEGIN
 40
0.06
 40
0.06
 40
0.06
 40
0.06
 40
0.06
 40
0.06
309
CELLMARGIN_END
 94
        6
 95
        1
302
GRIDFORMAT
  1
GRIDFORMAT_BEGIN
 90
        0
 91
        1
 62
     0
 92
       -2
340
14
 93
        0
 40
0.045
309
GRIDFORMAT_END
 95
        2
302
GRIDFORMAT
  1
GRIDFORMAT_BEGIN
 90
        0
 91
        1
 62
     0
 92
       -2
340
14
 93
        0
 40
0.045
309
GRIDFORMAT_END
 95
        4
302
GRIDFORMAT
  1
GRIDFORMAT_BEGIN
 90
        0
 91
        1
 62
     0
 92
       -2
340
14
 93
        0
 40
0.045
309
GRIDFORMAT_END
 95
        8
302
GRIDFORMAT
  1
GRIDFORMAT_BEGIN
 90
        0
 91
        1
 62
     0
 92
       -2
340
14
 93
        0
 40
0.045
309
GRIDFORMAT_END
 95
       16
302
GRIDFORMAT
  1
GRIDFORMAT_BEGIN
 90
        0
 91
        1
 62
     0
 92
       -2
340
14
 93
        0
 40
0.045
309
GRIDFORMAT_END
 95
       32
302
GRIDFORMAT
  1
GRIDFORMAT_BEGIN
 90
        0
 91
        1
 62
     0
 92
       -2
340
14
 93
        0
 40
0.045
309
GRIDFORMAT_END
309
TABLEFORMAT_END
  1
CELLSTYLE_BEGIN
 90
        3
 91
        2
300
_DATA
309
CELLSTYLE_END
  0
XRECORD
  5
257
102
{ACAD_REACTORS
330
256
102
}
330
256
100
AcDbXrecord
280
     1
102
RTVSPropertyOp0
 70
     1
102
RTVSPropertyOp1
 70
     1
102
RTVSPropertyOp2
 70
     1
102
RTVSPropertyOp3
 70
     1
102
RTVSPropertyOp4
 70
     1
102
RTVSPropertyOp5
 70
     1
102
RTVSPropertyOp6
 70
     1
102
RTVSPropertyOp7
 70
     1
102
RTVSPropertyOp8
 70
     1
102
RTVSPropertyOp9
 70
     1
102
RTVSPropertyOp10
 70
     1
102
RTVSPropertyOp11
 70
     1
102
RTVSPropertyOp12
 70
     1
102
RTVSPropertyOp13
 70
     1
102
RTVSPropertyOp14
 70
     1
102
RTVSPropertyOp15
 70
     1
102
RTVSPropertyOp16
 70
     1
102
RTVSPropertyOp17
 70
     1
102
RTVSPropertyOp18
 70
     1
102
RTVSPropertyOp19
 70
     1
102
RTVSPropertyOp20
 70
     1
102
RTVSPropertyOp21
 70
     1
102
RTVSPropertyOp22
 70
     1
102
RTVSPropertyOp23
 70
     1
102
RTVSPropertyOp24
 70
     1
102
RTVSPropertyOp25
 70
     1
102
RTVSPropertyOp26
 70
     1
102
RTVSPropertyOp27
 70
     1
102
RTVSPropertyOp28
 70
     1
102
RTVSPropertyOp29
 70
     1
102
RTVSPropertyOp30
 70
     1
102
RTVSPropertyOp31
 70
     1
102
RTVSPropertyOp32
 70
     1
102
RTVSPropertyOp33
 70
     1
102
RTVSPropertyOp34
 70
     1
102
RTVSPropertyOp35
 70
     1
102
RTVSPropertyOp36
 70
     1
102
RTVSPropertyOp37
 70
     1
102
RTVSPropertyOp38
 70
     1
102
RTVSPropertyOp39
 70
     1
102
RTVSPropertyOp40
 70
     1
102
RTVSPropertyOp41
 70
     1
102
RTVSPropertyOp42
 70
     1
102
RTVSPropertyOp43
 70
     1
102
RTVSPropertyOp44
 70
     1
102
RTVSPropertyOp45
 70
     1
102
RTVSPropertyOp46
 70
     1
102
RTVSPropertyOp47
 70
     1
102
RTVSPropertyOp48
 70
     1
102
RTVSPropertyOp49
 70
     1
102
RTVSPropertyOp50
 70
     1
102
RTVSPropertyOp51
 70
     0
102
RTVSPropertyOp52
 70
     0
102
RTVSPropertyOp53
 70
     1
102
RTVSPropertyOp54
 70
     1
102
RTVSPropertyOp55
 70
     1
102
RTVSPropertyOp56
 70
     1
102
RTVSPropertyOp57
 70
     1
102
RTVSPost2010Prop28
280
     1
102
RTVSPost2010PropOp28
 70
     1
102
RTVSPost2010Prop29
280
     1
102
RTVSPost2010PropOp29
 70
     1
102
RTVSPost2010Prop30
280
     0
102
RTVSPost2010PropOp30
 70
     1
102
RTVSPost2010Prop31
280
     0
102
RTVSPost2010PropOp31
 70
     1
102
RTVSPost2010Prop32
280
     0
102
RTVSPost2010PropOp32
 70
     1
102
RTVSPost2010Prop33
280
     0
102
RTVSPost2010PropOp33
 70
     1
102
RTVSPost2010Prop34
280
     0
102
RTVSPost2010PropOp34
 70
     1
102
RTVSPost2010Prop35
280
     0
102
RTVSPost2010PropOp35
 70
     1
102
RTVSPost2010Prop36
280
     0
102
RTVSPost2010PropOp36
 70
     1
102
RTVSPost2010Prop37
 90
       50
102
RTVSPost2010PropOp37
 70
     1
102
RTVSPost2010Prop38
140
0.0
102
RTVSPost2010PropOp38
 70
     1
102
RTVSPost2010Prop39
140
1.0
102
RTVSPost2010PropOp39
 70
     1
102
RTVSPost2010Prop40
 90
        0
102
RTVSPost2010PropOp40
 70
     1
102
RTVSPost2010Prop41ColorIndex
 90
       18
102
RTVSPost2010Prop41ColorRGB
 90
        0
102
RTVSPost2010PropOp41
 70
     1
102
RTVSPost2010Prop42
 90
       50
102
RTVSPost2010PropOp42
 70
     1
102
RTVSPost2010Prop43
 90
        3
102
RTVSPost2010PropOp43
 70
     1
102
RTVSPost2010Prop44ColorIndex
 90
        5
102
RTVSPost2010Prop44ColorRGB
 90
      255
102
RTVSPost2010PropOp44
 70
     1
102
RTVSPost2010Prop45
280
     0
102
RTVSPost2010PropOp45
 70
     1
102
RTVSPost2010Prop46
 90
       50
102
RTVSPost2010PropOp46
 70
     1
102
RTVSPost2010Prop47
 90
       50
102
RTVSPost2010PropOp47
 70
     1
102
RTVSPost2010Prop48
 90
       50
102
RTVSPost2010PropOp48
 70
     1
102
RTVSPost2010Prop49
280
     0
102
RTVSPost2010PropOp49
 70
     1
102
RTVSPost2010Prop50
 90
       50
102
RTVSPost2010PropOp50
 70
     1
102
RTVSPost2010Prop51ColorIndex
 90
      256
102
RTVSPost2010Prop51ColorRGB
 90
-16777216
102
RTVSPost2010PropOp51
 70
     0
102
RTVSPost2010Prop52
140
1.0
102
RTVSPost2010PropOp52
 70
     0
102
RTVSPost2010Prop53
 90
        2
102
RTVSPost2010PropOp53
 70
     1
102
RTVSPost2010Prop54
  1
strokes_ogs.tif
102
RTVSPost2010PropOp54
 70
     1
102
RTVSPost2010Prop55
280
     0
102
RTVSPost2010PropOp55
 70
     1
102
RTVSPost2010Prop56
140
1.0
102
RTVSPost2010PropOp56
 70
     1
102
RTVSPost2010Prop57
140
1.0
102
RTVSPost2010PropOp57
 70
     1
  0
XRECORD
  5
25D
102
{ACAD_REACTORS
330
25C
102
}
330
25C
100
AcDbXrecord
280
     1
102
RTVSPropertyOp0
 70
     1
102
RTVSPropertyOp1
 70
     1
102
RTVSPropertyOp2
 70
     1
102
RTVSPropertyOp3
 70
     1
102
RTVSPropertyOp4
 70
     1
102
RTVSPropertyOp5
 70
     1
102
RTVSPropertyOp6
 70
     1
102
RTVSPropertyOp7
 70
     1
102
RTVSPropertyOp8
 70
     1
102
RTVSPropertyOp9
 70
     1
102
RTVSPropertyOp10
 70
     1
102
RTVSPropertyOp11
 70
     1
102
RTVSPropertyOp12
 70
     1
102
RTVSPropertyOp13
 70
     1
102
RTVSPropertyOp14
 70
     1
102
RTVSPropertyOp15
 70
     1
102
RTVSPropertyOp16
 70
     1
102
RTVSPropertyOp17
 70
     1
102
RTVSPropertyOp18
 70
     1
102
RTVSPropertyOp19
 70
     1
102
RTVSPropertyOp20
 70
     1
102
RTVSPropertyOp21
 70
     1
102
RTVSPropertyOp22
 70
     1
102
RTVSPropertyOp23
 70
     1
102
RTVSPropertyOp24
 70
     1
102
RTVSPropertyOp25
 70
     1
102
RTVSPropertyOp26
 70
     1
102
RTVSPropertyOp27
 70
     1
102
RTVSPropertyOp28
 70
     1
102
RTVSPropertyOp29
 70
     1
102
RTVSPropertyOp30
 70
     1
102
RTVSPropertyOp31
 70
     1
102
RTVSPropertyOp32
 70
     1
102
RTVSPropertyOp33
 70
     1
102
RTVSPropertyOp34
 70
     1
102
RTVSPropertyOp35
 70
     1
102
RTVSPropertyOp36
 70
     1
102
RTVSPropertyOp37
 70
     1
102
RTVSPropertyOp38
 70
     1
102
RTVSPropertyOp39
 70
     1
102
RTVSPropertyOp40
 70
     1
102
RTVSPropertyOp41
 70
     1
102
RTVSPropertyOp42
 70
     1
102
RTVSPropertyOp43
 70
     1
102
RTVSPropertyOp44
 70
     1
102
RTVSPropertyOp45
 70
     1
102
RTVSPropertyOp46
 70
     1
102
RTVSPropertyOp47
 70
     1
102
RTVSPropertyOp48
 70
     1
102
RTVSPropertyOp49
 70
     1
102
RTVSPropertyOp50
 70
     1
102
RTVSPropertyOp51
 70
     0
102
RTVSPropertyOp52
 70
     0
102
RTVSPropertyOp53
 70
     1
102
RTVSPropertyOp54
 70
     1
102
RTVSPropertyOp55
 70
     1
102
RTVSPropertyOp56
 70
     1
102
RTVSPropertyOp57
 70
     1
102
RTVSPost2010Prop28
280
     0
102
RTVSPost2010PropOp28
 70
     1
102
RTVSPost2010Prop29
280
     1
102
RTVSPost2010PropOp29
 70
     1
102
RTVSPost2010Prop30
280
     1
102
RTVSPost2010PropOp30
 70
     1
102
RTVSPost2010Prop31
280
     0
102
RTVSPost2010PropOp31
 70
     1
102
RTVSPost2010Prop32
280
     0
102
RTVSPost2010PropOp32
 70
     1
102
RTVSPost2010Prop33
280
     0
102
RTVSPost2010PropOp33
 70
     1
102
RTVSPost2010Prop34
280
     0
102
RTVSPost2010PropOp34
 70
     1
102
RTVSPost2010Prop35
280
     0
102
RTVSPost2010PropOp35
 70
     1
102
RTVSPost2010Prop36
280
     0
102
RTVSPost2010PropOp36
 70
     1
102
RTVSPost2010Prop37
 90
       50
102
RTVSPost2010PropOp37
 70
     1
102
RTVSPost2010Prop38
140
0.0
102
RTVSPost2010PropOp38
 70
     1
102
RTVSPost2010Prop39
140
1.0
102
RTVSPost2010PropOp39
 70
     1
102
RTVSPost2010Prop40
 90
        0
102
RTVSPost2010PropOp40
 70
     1
102
RTVSPost2010Prop41ColorIndex
 90
       18
102
RTVSPost2010Prop41ColorRGB
 90
        0
102
RTVSPost2010PropOp41
 70
     1
102
RTVSPost2010Prop42
 90
       50
102
RTVSPost2010PropOp42
 70
     1
102
RTVSPost2010Prop43
 90
        3
102
RTVSPost2010PropOp43
 70
     1
102
RTVSPost2010Prop44ColorIndex
 90
        5
102
RTVSPost2010Prop44ColorRGB
 90
      255
102
RTVSPost2010PropOp44
 70
     1
102
RTVSPost2010Prop45
280
     0
102
RTVSPost2010PropOp45
 70
     1
102
RTVSPost2010Prop46
 90
       50
102
RTVSPost2010PropOp46
 70
     1
102
RTVSPost2010Prop47
 90
       50
102
RTVSPost2010PropOp47
 70
     1
102
RTVSPost2010Prop48
 90
       50
102
RTVSPost2010PropOp48
 70
     1
102
RTVSPost2010Prop49
280
     0
102
RTVSPost2010PropOp49
 70
     1
102
RTVSPost2010Prop50
 90
       50
102
RTVSPost2010PropOp50
 70
     1
102
RTVSPost2010Prop51ColorIndex
 90
      256
102
RTVSPost2010Prop51ColorRGB
 90
-16777216
102
RTVSPost2010PropOp51
 70
     0
102
RTVSPost2010Prop52
140
1.0
102
RTVSPost2010PropOp52
 70
     0
102
RTVSPost2010Prop53
 90
        2
102
RTVSPost2010PropOp53
 70
     1
102
RTVSPost2010Prop54
  1
strokes_ogs.tif
102
RTVSPost2010PropOp54
 70
     1
102
RTVSPost2010Prop55
280
     0
102
RTVSPost2010PropOp55
 70
     1
102
RTVSPost2010Prop56
140
1.0
102
RTVSPost2010PropOp56
 70
     1
102
RTVSPost2010Prop57
140
1.0
102
RTVSPost2010PropOp57
 70
     1
  0
XRECORD
  5
265
102
{ACAD_REACTORS
330
264
102
}
330
264
100
AcDbXrecord
280
     1
102
RTVSPropertyOp0
 70
     1
102
RTVSPropertyOp1
 70
     1
102
RTVSPropertyOp2
 70
     1
102
RTVSPropertyOp3
 70
     1
102
RTVSPropertyOp4
 70
     1
102
RTVSPropertyOp5
 70
     1
102
RTVSPropertyOp6
 70
     1
102
RTVSPropertyOp7
 70
     1
102
RTVSPropertyOp8
 70
     1
102
RTVSPropertyOp9
 70
     1
102
RTVSPropertyOp10
 70
     1
102
RTVSPropertyOp11
 70
     1
102
RTVSPropertyOp12
 70
     1
102
RTVSPropertyOp13
 70
     1
102
RTVSPropertyOp14
 70
     1
102
RTVSPropertyOp15
 70
     1
102
RTVSPropertyOp16
 70
     1
102
RTVSPropertyOp17
 70
     1
102
RTVSPropertyOp18
 70
     1
102
RTVSPropertyOp19
 70
     1
102
RTVSPropertyOp20
 70
     1
102
RTVSPropertyOp21
 70
     1
102
RTVSPropertyOp22
 70
     1
102
RTVSPropertyOp23
 70
     1
102
RTVSPropertyOp24
 70
     1
102
RTVSPropertyOp25
 70
     1
102
RTVSPropertyOp26
 70
     1
102
RTVSPropertyOp27
 70
     1
102
RTVSPropertyOp28
 70
     1
102
RTVSPropertyOp29
 70
     1
102
RTVSPropertyOp30
 70
     1
102
RTVSPropertyOp31
 70
     1
102
RTVSPropertyOp32
 70
     1
102
RTVSPropertyOp33
 70
     1
102
RTVSPropertyOp34
 70
     1
102
RTVSPropertyOp35
 70
     1
102
RTVSPropertyOp36
 70
     1
102
RTVSPropertyOp37
 70
     1
102
RTVSPropertyOp38
 70
     1
102
RTVSPropertyOp39
 70
     1
102
RTVSPropertyOp40
 70
     1
102
RTVSPropertyOp41
 70
     1
102
RTVSPropertyOp42
 70
     1
102
RTVSPropertyOp43
 70
     1
102
RTVSPropertyOp44
 70
     1
102
RTVSPropertyOp45
 70
     1
102
RTVSPropertyOp46
 70
     1
102
RTVSPropertyOp47
 70
     1
102
RTVSPropertyOp48
 70
     1
102
RTVSPropertyOp49
 70
     1
102
RTVSPropertyOp50
 70
     1
102
RTVSPropertyOp51
 70
     0
102
RTVSPropertyOp52
 70
     0
102
RTVSPropertyOp53
 70
     1
102
RTVSPropertyOp54
 70
     1
102
RTVSPropertyOp55
 70
     1
102
RTVSPropertyOp56
 70
     1
102
RTVSPropertyOp57
 70
     1
102
RTVSPost2010Prop28
280
     0
102
RTVSPost2010PropOp28
 70
     1
102
RTVSPost2010Prop29
280
     1
102
RTVSPost2010PropOp29
 70
     1
102
RTVSPost2010Prop30
280
     1
102
RTVSPost2010PropOp30
 70
     1
102
RTVSPost2010Prop31
280
     0
102
RTVSPost2010PropOp31
 70
     1
102
RTVSPost2010Prop32
280
     0
102
RTVSPost2010PropOp32
 70
     1
102
RTVSPost2010Prop33
280
     0
102
RTVSPost2010PropOp33
 70
     1
102
RTVSPost2010Prop34
280
     0
102
RTVSPost2010PropOp34
 70
     1
102
RTVSPost2010Prop35
280
     0
102
RTVSPost2010PropOp35
 70
     1
102
RTVSPost2010Prop36
280
     0
102
RTVSPost2010PropOp36
 70
     1
102
RTVSPost2010Prop37
 90
       50
102
RTVSPost2010PropOp37
 70
     1
102
RTVSPost2010Prop38
140
0.0
102
RTVSPost2010PropOp38
 70
     1
102
RTVSPost2010Prop39
140
1.0
102
RTVSPost2010PropOp39
 70
     1
102
RTVSPost2010Prop40
 90
        0
102
RTVSPost2010PropOp40
 70
     1
102
RTVSPost2010Prop41ColorIndex
 90
       18
102
RTVSPost2010Prop41ColorRGB
 90
        0
102
RTVSPost2010PropOp41
 70
     1
102
RTVSPost2010Prop42
 90
       50
102
RTVSPost2010PropOp42
 70
     1
102
RTVSPost2010Prop43
 90
        3
102
RTVSPost2010PropOp43
 70
     1
102
RTVSPost2010Prop44ColorIndex
 90
        5
102
RTVSPost2010Prop44ColorRGB
 90
      255
102
RTVSPost2010PropOp44
 70
     1
102
RTVSPost2010Prop45
280
     0
102
RTVSPost2010PropOp45
 70
     1
102
RTVSPost2010Prop46
 90
       50
102
RTVSPost2010PropOp46
 70
     1
102
RTVSPost2010Prop47
 90
       50
102
RTVSPost2010PropOp47
 70
     1
102
RTVSPost2010Prop48
 90
       50
102
RTVSPost2010PropOp48
 70
     1
102
RTVSPost2010Prop49
280
     0
102
RTVSPost2010PropOp49
 70
     1
102
RTVSPost2010Prop50
 90
       50
102
RTVSPost2010PropOp50
 70
     1
102
RTVSPost2010Prop51ColorIndex
 90
      256
102
RTVSPost2010Prop51ColorRGB
 90
-16777216
102
RTVSPost2010PropOp51
 70
     0
102
RTVSPost2010Prop52
140
1.0
102
RTVSPost2010PropOp52
 70
     0
102
RTVSPost2010Prop53
 90
        2
102
RTVSPost2010PropOp53
 70
     1
102
RTVSPost2010Prop54
  1
strokes_ogs.tif
102
RTVSPost2010PropOp54
 70
     1
102
RTVSPost2010Prop55
280
     0
102
RTVSPost2010PropOp55
 70
     1
102
RTVSPost2010Prop56
140
1.0
102
RTVSPost2010PropOp56
 70
     1
102
RTVSPost2010Prop57
140
1.0
102
RTVSPost2010PropOp57
 70
     1
  0
XRECORD
  5
26D
102
{ACAD_REACTORS
330
26C
102
}
330
26C
100
AcDbXrecord
280
     1
102
RTVSPropertyOp0
 70
     1
102
RTVSPropertyOp1
 70
     1
102
RTVSPropertyOp2
 70
     1
102
RTVSPropertyOp3
 70
     1
102
RTVSPropertyOp4
 70
     1
102
RTVSPropertyOp5
 70
     1
102
RTVSPropertyOp6
 70
     1
102
RTVSPropertyOp7
 70
     1
102
RTVSPropertyOp8
 70
     1
102
RTVSPropertyOp9
 70
     1
102
RTVSPropertyOp10
 70
     1
102
RTVSPropertyOp11
 70
     1
102
RTVSPropertyOp12
 70
     1
102
RTVSPropertyOp13
 70
     1
102
RTVSPropertyOp14
 70
     1
102
RTVSPropertyOp15
 70
     1
102
RTVSPropertyOp16
 70
     1
102
RTVSPropertyOp17
 70
     1
102
RTVSPropertyOp18
 70
     1
102
RTVSPropertyOp19
 70
     1
102
RTVSPropertyOp20
 70
     1
102
RTVSPropertyOp21
 70
     1
102
RTVSPropertyOp22
 70
     1
102
RTVSPropertyOp23
 70
     1
102
RTVSPropertyOp24
 70
     1
102
RTVSPropertyOp25
 70
     1
102
RTVSPropertyOp26
 70
     1
102
RTVSPropertyOp27
 70
     1
102
RTVSPropertyOp28
 70
     1
102
RTVSPropertyOp29
 70
     1
102
RTVSPropertyOp30
 70
     1
102
RTVSPropertyOp31
 70
     1
102
RTVSPropertyOp32
 70
     1
102
RTVSPropertyOp33
 70
     1
102
RTVSPropertyOp34
 70
     1
102
RTVSPropertyOp35
 70
     1
102
RTVSPropertyOp36
 70
     1
102
RTVSPropertyOp37
 70
     1
102
RTVSPropertyOp38
 70
     1
102
RTVSPropertyOp39
 70
     1
102
RTVSPropertyOp40
 70
     1
102
RTVSPropertyOp41
 70
     1
102
RTVSPropertyOp42
 70
     1
102
RTVSPropertyOp43
 70
     1
102
RTVSPropertyOp44
 70
     1
102
RTVSPropertyOp45
 70
     1
102
RTVSPropertyOp46
 70
     1
102
RTVSPropertyOp47
 70
     1
102
RTVSPropertyOp48
 70
     1
102
RTVSPropertyOp49
 70
     1
102
RTVSPropertyOp50
 70
     1
102
RTVSPropertyOp51
 70
     0
102
RTVSPropertyOp52
 70
     0
102
RTVSPropertyOp53
 70
     1
102
RTVSPropertyOp54
 70
     1
102
RTVSPropertyOp55
 70
     1
102
RTVSPropertyOp56
 70
     1
102
RTVSPropertyOp57
 70
     1
102
RTVSPost2010Prop28
280
     0
102
RTVSPost2010PropOp28
 70
     1
102
RTVSPost2010Prop29
280
     1
102
RTVSPost2010PropOp29
 70
     1
102
RTVSPost2010Prop30
280
     1
102
RTVSPost2010PropOp30
 70
     1
102
RTVSPost2010Prop31
280
     0
102
RTVSPost2010PropOp31
 70
     1
102
RTVSPost2010Prop32
280
     0
102
RTVSPost2010PropOp32
 70
     1
102
RTVSPost2010Prop33
280
     0
102
RTVSPost2010PropOp33
 70
     1
102
RTVSPost2010Prop34
280
     0
102
RTVSPost2010PropOp34
 70
     1
102
RTVSPost2010Prop35
280
     0
102
RTVSPost2010PropOp35
 70
     1
102
RTVSPost2010Prop36
280
     0
102
RTVSPost2010PropOp36
 70
     1
102
RTVSPost2010Prop37
 90
       50
102
RTVSPost2010PropOp37
 70
     1
102
RTVSPost2010Prop38
140
0.0
102
RTVSPost2010PropOp38
 70
     1
102
RTVSPost2010Prop39
140
1.0
102
RTVSPost2010PropOp39
 70
     1
102
RTVSPost2010Prop40
 90
        0
102
RTVSPost2010PropOp40
 70
     1
102
RTVSPost2010Prop41ColorIndex
 90
       18
102
RTVSPost2010Prop41ColorRGB
 90
        0
102
RTVSPost2010PropOp41
 70
     1
102
RTVSPost2010Prop42
 90
       50
102
RTVSPost2010PropOp42
 70
     1
102
RTVSPost2010Prop43
 90
        3
102
RTVSPost2010PropOp43
 70
     1
102
RTVSPost2010Prop44ColorIndex
 90
        5
102
RTVSPost2010Prop44ColorRGB
 90
      255
102
RTVSPost2010PropOp44
 70
     1
102
RTVSPost2010Prop45
280
     0
102
RTVSPost2010PropOp45
 70
     1
102
RTVSPost2010Prop46
 90
       50
102
RTVSPost2010PropOp46
 70
     1
102
RTVSPost2010Prop47
 90
       50
102
RTVSPost2010PropOp47
 70
     1
102
RTVSPost2010Prop48
 90
       50
102
RTVSPost2010PropOp48
 70
     1
102
RTVSPost2010Prop49
280
     0
102
RTVSPost2010PropOp49
 70
     1
102
RTVSPost2010Prop50
 90
       50
102
RTVSPost2010PropOp50
 70
     1
102
RTVSPost2010Prop51ColorIndex
 90
      256
102
RTVSPost2010Prop51ColorRGB
 90
-16777216
102
RTVSPost2010PropOp51
 70
     0
102
RTVSPost2010Prop52
140
1.0
102
RTVSPost2010PropOp52
 70
     0
102
RTVSPost2010Prop53
 90
        2
102
RTVSPost2010PropOp53
 70
     1
102
RTVSPost2010Prop54
  1
strokes_ogs.tif
102
RTVSPost2010PropOp54
 70
     1
102
RTVSPost2010Prop55
280
     0
102
RTVSPost2010PropOp55
 70
     1
102
RTVSPost2010Prop56
140
1.0
102
RTVSPost2010PropOp56
 70
     1
102
RTVSPost2010Prop57
140
1.0
102
RTVSPost2010PropOp57
 70
     1
  0
XRECORD
  5
261
102
{ACAD_REACTORS
330
260
102
}
330
260
100
AcDbXrecord
280
     1
102
RTVSPropertyOp0
 70
     1
102
RTVSPropertyOp1
 70
     1
102
RTVSPropertyOp2
 70
     1
102
RTVSPropertyOp3
 70
     1
102
RTVSPropertyOp4
 70
     1
102
RTVSPropertyOp5
 70
     1
102
RTVSPropertyOp6
 70
     1
102
RTVSPropertyOp7
 70
     1
102
RTVSPropertyOp8
 70
     1
102
RTVSPropertyOp9
 70
     1
102
RTVSPropertyOp10
 70
     1
102
RTVSPropertyOp11
 70
     1
102
RTVSPropertyOp12
 70
     1
102
RTVSPropertyOp13
 70
     1
102
RTVSPropertyOp14
 70
     1
102
RTVSPropertyOp15
 70
     1
102
RTVSPropertyOp16
 70
     1
102
RTVSPropertyOp17
 70
     1
102
RTVSPropertyOp18
 70
     1
102
RTVSPropertyOp19
 70
     1
102
RTVSPropertyOp20
 70
     1
102
RTVSPropertyOp21
 70
     1
102
RTVSPropertyOp22
 70
     1
102
RTVSPropertyOp23
 70
     1
102
RTVSPropertyOp24
 70
     1
102
RTVSPropertyOp25
 70
     1
102
RTVSPropertyOp26
 70
     1
102
RTVSPropertyOp27
 70
     1
102
RTVSPropertyOp28
 70
     1
102
RTVSPropertyOp29
 70
     1
102
RTVSPropertyOp30
 70
     1
102
RTVSPropertyOp31
 70
     1
102
RTVSPropertyOp32
 70
     1
102
RTVSPropertyOp33
 70
     1
102
RTVSPropertyOp34
 70
     1
102
RTVSPropertyOp35
 70
     1
102
RTVSPropertyOp36
 70
     1
102
RTVSPropertyOp37
 70
     1
102
RTVSPropertyOp38
 70
     1
102
RTVSPropertyOp39
 70
     1
102
RTVSPropertyOp40
 70
     1
102
RTVSPropertyOp41
 70
     1
102
RTVSPropertyOp42
 70
     1
102
RTVSPropertyOp43
 70
     1
102
RTVSPropertyOp44
 70
     1
102
RTVSPropertyOp45
 70
     1
102
RTVSPropertyOp46
 70
     1
102
RTVSPropertyOp47
 70
     1
102
RTVSPropertyOp48
 70
     1
102
RTVSPropertyOp49
 70
     1
102
RTVSPropertyOp50
 70
     1
102
RTVSPropertyOp51
 70
     0
102
RTVSPropertyOp52
 70
     0
102
RTVSPropertyOp53
 70
     1
102
RTVSPropertyOp54
 70
     1
102
RTVSPropertyOp55
 70
     1
102
RTVSPropertyOp56
 70
     1
102
RTVSPropertyOp57
 70
     1
102
RTVSPost2010Prop28
280
     0
102
RTVSPost2010PropOp28
 70
     1
102
RTVSPost2010Prop29
280
     1
102
RTVSPost2010PropOp29
 70
     1
102
RTVSPost2010Prop30
280
     1
102
RTVSPost2010PropOp30
 70
     1
102
RTVSPost2010Prop31
280
     0
102
RTVSPost2010PropOp31
 70
     1
102
RTVSPost2010Prop32
280
     0
102
RTVSPost2010PropOp32
 70
     1
102
RTVSPost2010Prop33
280
     0
102
RTVSPost2010PropOp33
 70
     1
102
RTVSPost2010Prop34
280
     0
102
RTVSPost2010PropOp34
 70
     1
102
RTVSPost2010Prop35
280
     0
102
RTVSPost2010PropOp35
 70
     1
102
RTVSPost2010Prop36
280
     0
102
RTVSPost2010PropOp36
 70
     1
102
RTVSPost2010Prop37
 90
       50
102
RTVSPost2010PropOp37
 70
     1
102
RTVSPost2010Prop38
140
0.0
102
RTVSPost2010PropOp38
 70
     1
102
RTVSPost2010Prop39
140
1.0
102
RTVSPost2010PropOp39
 70
     1
102
RTVSPost2010Prop40
 90
        0
102
RTVSPost2010PropOp40
 70
     1
102
RTVSPost2010Prop41ColorIndex
 90
       18
102
RTVSPost2010Prop41ColorRGB
 90
        0
102
RTVSPost2010PropOp41
 70
     1
102
RTVSPost2010Prop42
 90
       50
102
RTVSPost2010PropOp42
 70
     1
102
RTVSPost2010Prop43
 90
        3
102
RTVSPost2010PropOp43
 70
     1
102
RTVSPost2010Prop44ColorIndex
 90
        5
102
RTVSPost2010Prop44ColorRGB
 90
      255
102
RTVSPost2010PropOp44
 70
     1
102
RTVSPost2010Prop45
280
     0
102
RTVSPost2010PropOp45
 70
     1
102
RTVSPost2010Prop46
 90
       50
102
RTVSPost2010PropOp46
 70
     1
102
RTVSPost2010Prop47
 90
       50
102
RTVSPost2010PropOp47
 70
     1
102
RTVSPost2010Prop48
 90
       50
102
RTVSPost2010PropOp48
 70
     1
102
RTVSPost2010Prop49
280
     0
102
RTVSPost2010PropOp49
 70
     1
102
RTVSPost2010Prop50
 90
       50
102
RTVSPost2010PropOp50
 70
     1
102
RTVSPost2010Prop51ColorIndex
 90
      256
102
RTVSPost2010Prop51ColorRGB
 90
-16777216
102
RTVSPost2010PropOp51
 70
     0
102
RTVSPost2010Prop52
140
1.0
102
RTVSPost2010PropOp52
 70
     0
102
RTVSPost2010Prop53
 90
        2
102
RTVSPost2010PropOp53
 70
     1
102
RTVSPost2010Prop54
  1
strokes_ogs.tif
102
RTVSPost2010PropOp54
 70
     1
102
RTVSPost2010Prop55
280
     0
102
RTVSPost2010PropOp55
 70
     1
102
RTVSPost2010Prop56
140
1.0
102
RTVSPost2010PropOp56
 70
     1
102
RTVSPost2010Prop57
140
1.0
102
RTVSPost2010PropOp57
 70
     1
  0
XRECORD
  5
263
102
{ACAD_REACTORS
330
262
102
}
330
262
100
AcDbXrecord
280
     1
102
RTVSPropertyOp0
 70
     1
102
RTVSPropertyOp1
 70
     1
102
RTVSPropertyOp2
 70
     1
102
RTVSPropertyOp3
 70
     1
102
RTVSPropertyOp4
 70
     1
102
RTVSPropertyOp5
 70
     1
102
RTVSPropertyOp6
 70
     1
102
RTVSPropertyOp7
 70
     1
102
RTVSPropertyOp8
 70
     1
102
RTVSPropertyOp9
 70
     1
102
RTVSPropertyOp10
 70
     1
102
RTVSPropertyOp11
 70
     1
102
RTVSPropertyOp12
 70
     1
102
RTVSPropertyOp13
 70
     1
102
RTVSPropertyOp14
 70
     1
102
RTVSPropertyOp15
 70
     1
102
RTVSPropertyOp16
 70
     1
102
RTVSPropertyOp17
 70
     1
102
RTVSPropertyOp18
 70
     1
102
RTVSPropertyOp19
 70
     1
102
RTVSPropertyOp20
 70
     1
102
RTVSPropertyOp21
 70
     1
102
RTVSPropertyOp22
 70
     1
102
RTVSPropertyOp23
 70
     1
102
RTVSPropertyOp24
 70
     1
102
RTVSPropertyOp25
 70
     1
102
RTVSPropertyOp26
 70
     1
102
RTVSPropertyOp27
 70
     1
102
RTVSPropertyOp28
 70
     1
102
RTVSPropertyOp29
 70
     1
102
RTVSPropertyOp30
 70
     1
102
RTVSPropertyOp31
 70
     1
102
RTVSPropertyOp32
 70
     1
102
RTVSPropertyOp33
 70
     1
102
RTVSPropertyOp34
 70
     1
102
RTVSPropertyOp35
 70
     1
102
RTVSPropertyOp36
 70
     1
102
RTVSPropertyOp37
 70
     1
102
RTVSPropertyOp38
 70
     1
102
RTVSPropertyOp39
 70
     1
102
RTVSPropertyOp40
 70
     1
102
RTVSPropertyOp41
 70
     1
102
RTVSPropertyOp42
 70
     1
102
RTVSPropertyOp43
 70
     1
102
RTVSPropertyOp44
 70
     1
102
RTVSPropertyOp45
 70
     1
102
RTVSPropertyOp46
 70
     1
102
RTVSPropertyOp47
 70
     1
102
RTVSPropertyOp48
 70
     1
102
RTVSPropertyOp49
 70
     1
102
RTVSPropertyOp50
 70
     1
102
RTVSPropertyOp51
 70
     0
102
RTVSPropertyOp52
 70
     0
102
RTVSPropertyOp53
 70
     1
102
RTVSPropertyOp54
 70
     1
102
RTVSPropertyOp55
 70
     1
102
RTVSPropertyOp56
 70
     1
102
RTVSPropertyOp57
 70
     1
102
RTVSPost2010Prop28
280
     0
102
RTVSPost2010PropOp28
 70
     1
102
RTVSPost2010Prop29
280
     1
102
RTVSPost2010PropOp29
 70
     1
102
RTVSPost2010Prop30
280
     1
102
RTVSPost2010PropOp30
 70
     1
102
RTVSPost2010Prop31
280
     0
102
RTVSPost2010PropOp31
 70
     1
102
RTVSPost2010Prop32
280
     0
102
RTVSPost2010PropOp32
 70
     1
102
RTVSPost2010Prop33
280
     0
102
RTVSPost2010PropOp33
 70
     1
102
RTVSPost2010Prop34
280
     0
102
RTVSPost2010PropOp34
 70
     1
102
RTVSPost2010Prop35
280
     0
102
RTVSPost2010PropOp35
 70
     1
102
RTVSPost2010Prop36
280
     0
102
RTVSPost2010PropOp36
 70
     1
102
RTVSPost2010Prop37
 90
       50
102
RTVSPost2010PropOp37
 70
     1
102
RTVSPost2010Prop38
140
0.0
102
RTVSPost2010PropOp38
 70
     1
102
RTVSPost2010Prop39
140
1.0
102
RTVSPost2010PropOp39
 70
     1
102
RTVSPost2010Prop40
 90
        0
102
RTVSPost2010PropOp40
 70
     1
102
RTVSPost2010Prop41ColorIndex
 90
       18
102
RTVSPost2010Prop41ColorRGB
 90
        0
102
RTVSPost2010PropOp41
 70
     1
102
RTVSPost2010Prop42
 90
       50
102
RTVSPost2010PropOp42
 70
     1
102
RTVSPost2010Prop43
 90
        3
102
RTVSPost2010PropOp43
 70
     1
102
RTVSPost2010Prop44ColorIndex
 90
        5
102
RTVSPost2010Prop44ColorRGB
 90
      255
102
RTVSPost2010PropOp44
 70
     1
102
RTVSPost2010Prop45
280
     0
102
RTVSPost2010PropOp45
 70
     1
102
RTVSPost2010Prop46
 90
       50
102
RTVSPost2010PropOp46
 70
     1
102
RTVSPost2010Prop47
 90
       50
102
RTVSPost2010PropOp47
 70
     1
102
RTVSPost2010Prop48
 90
       50
102
RTVSPost2010PropOp48
 70
     1
102
RTVSPost2010Prop49
280
     0
102
RTVSPost2010PropOp49
 70
     1
102
RTVSPost2010Prop50
 90
       50
102
RTVSPost2010PropOp50
 70
     1
102
RTVSPost2010Prop51ColorIndex
 90
      256
102
RTVSPost2010Prop51ColorRGB
 90
-16777216
102
RTVSPost2010PropOp51
 70
     0
102
RTVSPost2010Prop52
140
1.0
102
RTVSPost2010PropOp52
 70
     0
102
RTVSPost2010Prop53
 90
        2
102
RTVSPost2010PropOp53
 70
     1
102
RTVSPost2010Prop54
  1
strokes_ogs.tif
102
RTVSPost2010PropOp54
 70
     1
102
RTVSPost2010Prop55
280
     0
102
RTVSPost2010PropOp55
 70
     1
102
RTVSPost2010Prop56
140
1.0
102
RTVSPost2010PropOp56
 70
     1
102
RTVSPost2010Prop57
140
1.0
102
RTVSPost2010PropOp57
 70
     1
  0
XRECORD
  5
273
102
{ACAD_REACTORS
330
272
102
}
330
272
100
AcDbXrecord
280
     1
102
RTVSPropertyOp0
 70
     0
102
RTVSPropertyOp1
 70
     0
102
RTVSPropertyOp2
 70
     0
102
RTVSPropertyOp3
 70
     0
102
RTVSPropertyOp4
 70
     0
102
RTVSPropertyOp5
 70
     0
102
RTVSPropertyOp6
 70
     0
102
RTVSPropertyOp7
 70
     0
102
RTVSPropertyOp8
 70
     0
102
RTVSPropertyOp9
 70
     0
102
RTVSPropertyOp10
 70
     0
102
RTVSPropertyOp11
 70
     0
102
RTVSPropertyOp12
 70
     0
102
RTVSPropertyOp13
 70
     0
102
RTVSPropertyOp14
 70
     2
102
RTVSPropertyOp15
 70
     0
102
RTVSPropertyOp16
 70
     0
102
RTVSPropertyOp17
 70
     0
102
RTVSPropertyOp18
 70
     0
102
RTVSPropertyOp19
 70
     0
102
RTVSPropertyOp20
 70
     0
102
RTVSPropertyOp21
 70
     0
102
RTVSPropertyOp22
 70
     0
102
RTVSPropertyOp23
 70
     0
102
RTVSPropertyOp24
 70
     0
102
RTVSPropertyOp25
 70
     0
102
RTVSPropertyOp26
 70
     0
102
RTVSPropertyOp27
 70
     0
102
RTVSPropertyOp28
 70
     0
102
RTVSPropertyOp29
 70
     0
102
RTVSPropertyOp30
 70
     0
102
RTVSPropertyOp31
 70
     0
102
RTVSPropertyOp32
 70
     0
102
RTVSPropertyOp33
 70
     0
102
RTVSPropertyOp34
 70
     0
102
RTVSPropertyOp35
 70
     0
102
RTVSPropertyOp36
 70
     0
102
RTVSPropertyOp37
 70
     0
102
RTVSPropertyOp38
 70
     0
102
RTVSPropertyOp39
 70
     0
102
RTVSPropertyOp40
 70
     0
102
RTVSPropertyOp41
 70
     0
102
RTVSPropertyOp42
 70
     0
102
RTVSPropertyOp43
 70
     0
102
RTVSPropertyOp44
 70
     0
102
RTVSPropertyOp45
 70
     0
102
RTVSPropertyOp46
 70
     0
102
RTVSPropertyOp47
 70
     0
102
RTVSPropertyOp48
 70
     0
102
RTVSPropertyOp49
 70
     0
102
RTVSPropertyOp50
 70
     0
102
RTVSPropertyOp51
 70
     0
102
RTVSPropertyOp52
 70
     0
102
RTVSPropertyOp53
 70
     0
102
RTVSPropertyOp54
 70
     0
102
RTVSPropertyOp55
 70
     0
102
RTVSPropertyOp56
 70
     0
102
RTVSPropertyOp57
 70
     0
102
RTVSPost2010Prop28
280
     0
102
RTVSPost2010PropOp28
 70
     0
102
RTVSPost2010Prop29
280
     1
102
RTVSPost2010PropOp29
 70
     0
102
RTVSPost2010Prop30
280
     1
102
RTVSPost2010PropOp30
 70
     0
102
RTVSPost2010Prop31
280
     0
102
RTVSPost2010PropOp31
 70
     0
102
RTVSPost2010Prop32
280
     0
102
RTVSPost2010PropOp32
 70
     0
102
RTVSPost2010Prop33
280
     0
102
RTVSPost2010PropOp33
 70
     0
102
RTVSPost2010Prop34
280
     0
102
RTVSPost2010PropOp34
 70
     0
102
RTVSPost2010Prop35
280
     0
102
RTVSPost2010PropOp35
 70
     0
102
RTVSPost2010Prop36
280
     0
102
RTVSPost2010PropOp36
 70
     0
102
RTVSPost2010Prop37
 90
       50
102
RTVSPost2010PropOp37
 70
     0
102
RTVSPost2010Prop38
140
0.0
102
RTVSPost2010PropOp38
 70
     0
102
RTVSPost2010Prop39
140
1.0
102
RTVSPost2010PropOp39
 70
     0
102
RTVSPost2010Prop40
 90
        0
102
RTVSPost2010PropOp40
 70
     0
102
RTVSPost2010Prop41ColorIndex
 90
       18
102
RTVSPost2010Prop41ColorRGB
 90
        0
102
RTVSPost2010PropOp41
 70
     0
102
RTVSPost2010Prop42
 90
       50
102
RTVSPost2010PropOp42
 70
     0
102
RTVSPost2010Prop43
 90
        3
102
RTVSPost2010PropOp43
 70
     0
102
RTVSPost2010Prop44ColorIndex
 90
        5
102
RTVSPost2010Prop44ColorRGB
 90
      255
102
RTVSPost2010PropOp44
 70
     0
102
RTVSPost2010Prop45
280
     0
102
RTVSPost2010PropOp45
 70
     0
102
RTVSPost2010Prop46
 90
       50
102
RTVSPost2010PropOp46
 70
     0
102
RTVSPost2010Prop47
 90
       50
102
RTVSPost2010PropOp47
 70
     0
102
RTVSPost2010Prop48
 90
       50
102
RTVSPost2010PropOp48
 70
     0
102
RTVSPost2010Prop49
280
     0
102
RTVSPost2010PropOp49
 70
     0
102
RTVSPost2010Prop50
 90
       50
102
RTVSPost2010PropOp50
 70
     0
102
RTVSPost2010Prop51ColorIndex
 90
      256
102
RTVSPost2010Prop51ColorRGB
 90
-16777216
102
RTVSPost2010PropOp51
 70
     0
102
RTVSPost2010Prop52
140
1.0
102
RTVSPost2010PropOp52
 70
     0
102
RTVSPost2010Prop53
 90
        2
102
RTVSPost2010PropOp53
 70
     0
102
RTVSPost2010Prop54
  1
strokes_ogs.tif
102
RTVSPost2010PropOp54
 70
     0
102
RTVSPost2010Prop55
280
     0
102
RTVSPost2010PropOp55
 70
     0
102
RTVSPost2010Prop56
140
1.0
102
RTVSPost2010PropOp56
 70
     0
102
RTVSPost2010Prop57
140
1.0
102
RTVSPost2010PropOp57
 70
     0
  0
XRECORD
  5
26B
102
{ACAD_REACTORS
330
26A
102
}
330
26A
100
AcDbXrecord
280
     1
102
RTVSPropertyOp0
 70
     1
102
RTVSPropertyOp1
 70
     1
102
RTVSPropertyOp2
 70
     1
102
RTVSPropertyOp3
 70
     1
102
RTVSPropertyOp4
 70
     1
102
RTVSPropertyOp5
 70
     1
102
RTVSPropertyOp6
 70
     1
102
RTVSPropertyOp7
 70
     1
102
RTVSPropertyOp8
 70
     1
102
RTVSPropertyOp9
 70
     1
102
RTVSPropertyOp10
 70
     1
102
RTVSPropertyOp11
 70
     1
102
RTVSPropertyOp12
 70
     1
102
RTVSPropertyOp13
 70
     1
102
RTVSPropertyOp14
 70
     1
102
RTVSPropertyOp15
 70
     1
102
RTVSPropertyOp16
 70
     1
102
RTVSPropertyOp17
 70
     1
102
RTVSPropertyOp18
 70
     1
102
RTVSPropertyOp19
 70
     1
102
RTVSPropertyOp20
 70
     1
102
RTVSPropertyOp21
 70
     1
102
RTVSPropertyOp22
 70
     1
102
RTVSPropertyOp23
 70
     1
102
RTVSPropertyOp24
 70
     1
102
RTVSPropertyOp25
 70
     1
102
RTVSPropertyOp26
 70
     1
102
RTVSPropertyOp27
 70
     1
102
RTVSPropertyOp28
 70
     1
102
RTVSPropertyOp29
 70
     1
102
RTVSPropertyOp30
 70
     1
102
RTVSPropertyOp31
 70
     1
102
RTVSPropertyOp32
 70
     1
102
RTVSPropertyOp33
 70
     1
102
RTVSPropertyOp34
 70
     1
102
RTVSPropertyOp35
 70
     1
102
RTVSPropertyOp36
 70
     1
102
RTVSPropertyOp37
 70
     1
102
RTVSPropertyOp38
 70
     1
102
RTVSPropertyOp39
 70
     1
102
RTVSPropertyOp40
 70
     1
102
RTVSPropertyOp41
 70
     1
102
RTVSPropertyOp42
 70
     1
102
RTVSPropertyOp43
 70
     1
102
RTVSPropertyOp44
 70
     1
102
RTVSPropertyOp45
 70
     1
102
RTVSPropertyOp46
 70
     1
102
RTVSPropertyOp47
 70
     1
102
RTVSPropertyOp48
 70
     1
102
RTVSPropertyOp49
 70
     1
102
RTVSPropertyOp50
 70
     1
102
RTVSPropertyOp51
 70
     0
102
RTVSPropertyOp52
 70
     0
102
RTVSPropertyOp53
 70
     1
102
RTVSPropertyOp54
 70
     1
102
RTVSPropertyOp55
 70
     1
102
RTVSPropertyOp56
 70
     1
102
RTVSPropertyOp57
 70
     1
102
RTVSPost2010Prop28
280
     0
102
RTVSPost2010PropOp28
 70
     1
102
RTVSPost2010Prop29
280
     1
102
RTVSPost2010PropOp29
 70
     1
102
RTVSPost2010Prop30
280
     1
102
RTVSPost2010PropOp30
 70
     1
102
RTVSPost2010Prop31
280
     0
102
RTVSPost2010PropOp31
 70
     1
102
RTVSPost2010Prop32
280
     0
102
RTVSPost2010PropOp32
 70
     1
102
RTVSPost2010Prop33
280
     0
102
RTVSPost2010PropOp33
 70
     1
102
RTVSPost2010Prop34
280
     0
102
RTVSPost2010PropOp34
 70
     1
102
RTVSPost2010Prop35
280
     0
102
RTVSPost2010PropOp35
 70
     1
102
RTVSPost2010Prop36
280
     0
102
RTVSPost2010PropOp36
 70
     1
102
RTVSPost2010Prop37
 90
       50
102
RTVSPost2010PropOp37
 70
     1
102
RTVSPost2010Prop38
140
0.0
102
RTVSPost2010PropOp38
 70
     1
102
RTVSPost2010Prop39
140
1.0
102
RTVSPost2010PropOp39
 70
     1
102
RTVSPost2010Prop40
 90
        0
102
RTVSPost2010PropOp40
 70
     1
102
RTVSPost2010Prop41ColorIndex
 90
       18
102
RTVSPost2010Prop41ColorRGB
 90
        0
102
RTVSPost2010PropOp41
 70
     1
102
RTVSPost2010Prop42
 90
       50
102
RTVSPost2010PropOp42
 70
     1
102
RTVSPost2010Prop43
 90
        3
102
RTVSPost2010PropOp43
 70
     1
102
RTVSPost2010Prop44ColorIndex
 90
        5
102
RTVSPost2010Prop44ColorRGB
 90
      255
102
RTVSPost2010PropOp44
 70
     1
102
RTVSPost2010Prop45
280
     0
102
RTVSPost2010PropOp45
 70
     1
102
RTVSPost2010Prop46
 90
       50
102
RTVSPost2010PropOp46
 70
     1
102
RTVSPost2010Prop47
 90
       50
102
RTVSPost2010PropOp47
 70
     1
102
RTVSPost2010Prop48
 90
       50
102
RTVSPost2010PropOp48
 70
     1
102
RTVSPost2010Prop49
280
     0
102
RTVSPost2010PropOp49
 70
     1
102
RTVSPost2010Prop50
 90
       50
102
RTVSPost2010PropOp50
 70
     1
102
RTVSPost2010Prop51ColorIndex
 90
      256
102
RTVSPost2010Prop51ColorRGB
 90
-16777216
102
RTVSPost2010PropOp51
 70
     0
102
RTVSPost2010Prop52
140
1.0
102
RTVSPost2010PropOp52
 70
     0
102
RTVSPost2010Prop53
 90
        2
102
RTVSPost2010PropOp53
 70
     1
102
RTVSPost2010Prop54
  1
strokes_ogs.tif
102
RTVSPost2010PropOp54
 70
     1
102
RTVSPost2010Prop55
280
     0
102
RTVSPost2010PropOp55
 70
     1
102
RTVSPost2010Prop56
140
1.0
102
RTVSPost2010PropOp56
 70
     1
102
RTVSPost2010Prop57
140
1.0
102
RTVSPost2010PropOp57
 70
     1
  0
XRECORD
  5
24F
102
{ACAD_REACTORS
330
24E
102
}
330
24E
100
AcDbXrecord
280
     1
102
RTVSPropertyOp0
 70
     1
102
RTVSPropertyOp1
 70
     1
102
RTVSPropertyOp2
 70
     1
102
RTVSPropertyOp3
 70
     1
102
RTVSPropertyOp4
 70
     1
102
RTVSPropertyOp5
 70
     1
102
RTVSPropertyOp6
 70
     1
102
RTVSPropertyOp7
 70
     1
102
RTVSPropertyOp8
 70
     1
102
RTVSPropertyOp9
 70
     1
102
RTVSPropertyOp10
 70
     1
102
RTVSPropertyOp11
 70
     1
102
RTVSPropertyOp12
 70
     1
102
RTVSPropertyOp13
 70
     1
102
RTVSPropertyOp14
 70
     1
102
RTVSPropertyOp15
 70
     1
102
RTVSPropertyOp16
 70
     1
102
RTVSPropertyOp17
 70
     1
102
RTVSPropertyOp18
 70
     1
102
RTVSPropertyOp19
 70
     1
102
RTVSPropertyOp20
 70
     1
102
RTVSPropertyOp21
 70
     1
102
RTVSPropertyOp22
 70
     1
102
RTVSPropertyOp23
 70
     1
102
RTVSPropertyOp24
 70
     1
102
RTVSPropertyOp25
 70
     1
102
RTVSPropertyOp26
 70
     1
102
RTVSPropertyOp27
 70
     1
102
RTVSPropertyOp28
 70
     1
102
RTVSPropertyOp29
 70
     1
102
RTVSPropertyOp30
 70
     1
102
RTVSPropertyOp31
 70
     1
102
RTVSPropertyOp32
 70
     1
102
RTVSPropertyOp33
 70
     1
102
RTVSPropertyOp34
 70
     1
102
RTVSPropertyOp35
 70
     1
102
RTVSPropertyOp36
 70
     1
102
RTVSPropertyOp37
 70
     1
102
RTVSPropertyOp38
 70
     1
102
RTVSPropertyOp39
 70
     1
102
RTVSPropertyOp40
 70
     1
102
RTVSPropertyOp41
 70
     1
102
RTVSPropertyOp42
 70
     1
102
RTVSPropertyOp43
 70
     1
102
RTVSPropertyOp44
 70
     1
102
RTVSPropertyOp45
 70
     1
102
RTVSPropertyOp46
 70
     1
102
RTVSPropertyOp47
 70
     1
102
RTVSPropertyOp48
 70
     1
102
RTVSPropertyOp49
 70
     1
102
RTVSPropertyOp50
 70
     1
102
RTVSPropertyOp51
 70
     0
102
RTVSPropertyOp52
 70
     0
102
RTVSPropertyOp53
 70
     1
102
RTVSPropertyOp54
 70
     1
102
RTVSPropertyOp55
 70
     1
102
RTVSPropertyOp56
 70
     1
102
RTVSPropertyOp57
 70
     1
102
RTVSPost2010Prop28
280
     0
102
RTVSPost2010PropOp28
 70
     1
102
RTVSPost2010Prop29
280
     1
102
RTVSPost2010PropOp29
 70
     1
102
RTVSPost2010Prop30
280
     1
102
RTVSPost2010PropOp30
 70
     1
102
RTVSPost2010Prop31
280
     0
102
RTVSPost2010PropOp31
 70
     1
102
RTVSPost2010Prop32
280
     0
102
RTVSPost2010PropOp32
 70
     1
102
RTVSPost2010Prop33
280
     0
102
RTVSPost2010PropOp33
 70
     1
102
RTVSPost2010Prop34
280
     0
102
RTVSPost2010PropOp34
 70
     1
102
RTVSPost2010Prop35
280
     0
102
RTVSPost2010PropOp35
 70
     1
102
RTVSPost2010Prop36
280
     0
102
RTVSPost2010PropOp36
 70
     1
102
RTVSPost2010Prop37
 90
       50
102
RTVSPost2010PropOp37
 70
     1
102
RTVSPost2010Prop38
140
0.0
102
RTVSPost2010PropOp38
 70
     1
102
RTVSPost2010Prop39
140
1.0
102
RTVSPost2010PropOp39
 70
     1
102
RTVSPost2010Prop40
 90
        0
102
RTVSPost2010PropOp40
 70
     1
102
RTVSPost2010Prop41ColorIndex
 90
       18
102
RTVSPost2010Prop41ColorRGB
 90
        0
102
RTVSPost2010PropOp41
 70
     1
102
RTVSPost2010Prop42
 90
       50
102
RTVSPost2010PropOp42
 70
     1
102
RTVSPost2010Prop43
 90
        3
102
RTVSPost2010PropOp43
 70
     1
102
RTVSPost2010Prop44ColorIndex
 90
        5
102
RTVSPost2010Prop44ColorRGB
 90
      255
102
RTVSPost2010PropOp44
 70
     1
102
RTVSPost2010Prop45
280
     0
102
RTVSPost2010PropOp45
 70
     1
102
RTVSPost2010Prop46
 90
       50
102
RTVSPost2010PropOp46
 70
     1
102
RTVSPost2010Prop47
 90
       50
102
RTVSPost2010PropOp47
 70
     1
102
RTVSPost2010Prop48
 90
       50
102
RTVSPost2010PropOp48
 70
     1
102
RTVSPost2010Prop49
280
     0
102
RTVSPost2010PropOp49
 70
     1
102
RTVSPost2010Prop50
 90
       50
102
RTVSPost2010PropOp50
 70
     1
102
RTVSPost2010Prop51ColorIndex
 90
      256
102
RTVSPost2010Prop51ColorRGB
 90
-16777216
102
RTVSPost2010PropOp51
 70
     0
102
RTVSPost2010Prop52
140
1.0
102
RTVSPost2010PropOp52
 70
     0
102
RTVSPost2010Prop53
 90
        2
102
RTVSPost2010PropOp53
 70
     1
102
RTVSPost2010Prop54
  1
strokes_ogs.tif
102
RTVSPost2010PropOp54
 70
     1
102
RTVSPost2010Prop55
280
     0
102
RTVSPost2010PropOp55
 70
     1
102
RTVSPost2010Prop56
140
1.0
102
RTVSPost2010PropOp56
 70
     1
102
RTVSPost2010Prop57
140
1.0
102
RTVSPost2010PropOp57
 70
     1
  0
XRECORD
  5
251
102
{ACAD_REACTORS
330
250
102
}
330
250
100
AcDbXrecord
280
     1
102
RTVSPropertyOp0
 70
     1
102
RTVSPropertyOp1
 70
     1
102
RTVSPropertyOp2
 70
     1
102
RTVSPropertyOp3
 70
     1
102
RTVSPropertyOp4
 70
     1
102
RTVSPropertyOp5
 70
     1
102
RTVSPropertyOp6
 70
     1
102
RTVSPropertyOp7
 70
     1
102
RTVSPropertyOp8
 70
     1
102
RTVSPropertyOp9
 70
     1
102
RTVSPropertyOp10
 70
     1
102
RTVSPropertyOp11
 70
     1
102
RTVSPropertyOp12
 70
     1
102
RTVSPropertyOp13
 70
     1
102
RTVSPropertyOp14
 70
     1
102
RTVSPropertyOp15
 70
     1
102
RTVSPropertyOp16
 70
     1
102
RTVSPropertyOp17
 70
     1
102
RTVSPropertyOp18
 70
     1
102
RTVSPropertyOp19
 70
     1
102
RTVSPropertyOp20
 70
     1
102
RTVSPropertyOp21
 70
     1
102
RTVSPropertyOp22
 70
     1
102
RTVSPropertyOp23
 70
     1
102
RTVSPropertyOp24
 70
     1
102
RTVSPropertyOp25
 70
     1
102
RTVSPropertyOp26
 70
     1
102
RTVSPropertyOp27
 70
     1
102
RTVSPropertyOp28
 70
     1
102
RTVSPropertyOp29
 70
     1
102
RTVSPropertyOp30
 70
     1
102
RTVSPropertyOp31
 70
     1
102
RTVSPropertyOp32
 70
     1
102
RTVSPropertyOp33
 70
     1
102
RTVSPropertyOp34
 70
     1
102
RTVSPropertyOp35
 70
     1
102
RTVSPropertyOp36
 70
     1
102
RTVSPropertyOp37
 70
     1
102
RTVSPropertyOp38
 70
     1
102
RTVSPropertyOp39
 70
     1
102
RTVSPropertyOp40
 70
     1
102
RTVSPropertyOp41
 70
     1
102
RTVSPropertyOp42
 70
     1
102
RTVSPropertyOp43
 70
     1
102
RTVSPropertyOp44
 70
     1
102
RTVSPropertyOp45
 70
     1
102
RTVSPropertyOp46
 70
     1
102
RTVSPropertyOp47
 70
     1
102
RTVSPropertyOp48
 70
     1
102
RTVSPropertyOp49
 70
     1
102
RTVSPropertyOp50
 70
     1
102
RTVSPropertyOp51
 70
     0
102
RTVSPropertyOp52
 70
     0
102
RTVSPropertyOp53
 70
     1
102
RTVSPropertyOp54
 70
     1
102
RTVSPropertyOp55
 70
     1
102
RTVSPropertyOp56
 70
     1
102
RTVSPropertyOp57
 70
     1
102
RTVSPost2010Prop28
280
     0
102
RTVSPost2010PropOp28
 70
     1
102
RTVSPost2010Prop29
280
     1
102
RTVSPost2010PropOp29
 70
     1
102
RTVSPost2010Prop30
280
     1
102
RTVSPost2010PropOp30
 70
     1
102
RTVSPost2010Prop31
280
     0
102
RTVSPost2010PropOp31
 70
     1
102
RTVSPost2010Prop32
280
     0
102
RTVSPost2010PropOp32
 70
     1
102
RTVSPost2010Prop33
280
     0
102
RTVSPost2010PropOp33
 70
     1
102
RTVSPost2010Prop34
280
     0
102
RTVSPost2010PropOp34
 70
     1
102
RTVSPost2010Prop35
280
     0
102
RTVSPost2010PropOp35
 70
     1
102
RTVSPost2010Prop36
280
     0
102
RTVSPost2010PropOp36
 70
     1
102
RTVSPost2010Prop37
 90
       50
102
RTVSPost2010PropOp37
 70
     1
102
RTVSPost2010Prop38
140
0.0
102
RTVSPost2010PropOp38
 70
     1
102
RTVSPost2010Prop39
140
1.0
102
RTVSPost2010PropOp39
 70
     1
102
RTVSPost2010Prop40
 90
        0
102
RTVSPost2010PropOp40
 70
     1
102
RTVSPost2010Prop41ColorIndex
 90
       18
102
RTVSPost2010Prop41ColorRGB
 90
        0
102
RTVSPost2010PropOp41
 70
     1
102
RTVSPost2010Prop42
 90
       50
102
RTVSPost2010PropOp42
 70
     1
102
RTVSPost2010Prop43
 90
        3
102
RTVSPost2010PropOp43
 70
     1
102
RTVSPost2010Prop44ColorIndex
 90
        5
102
RTVSPost2010Prop44ColorRGB
 90
      255
102
RTVSPost2010PropOp44
 70
     1
102
RTVSPost2010Prop45
280
     0
102
RTVSPost2010PropOp45
 70
     1
102
RTVSPost2010Prop46
 90
       50
102
RTVSPost2010PropOp46
 70
     1
102
RTVSPost2010Prop47
 90
       50
102
RTVSPost2010PropOp47
 70
     1
102
RTVSPost2010Prop48
 90
       50
102
RTVSPost2010PropOp48
 70
     1
102
RTVSPost2010Prop49
280
     0
102
RTVSPost2010PropOp49
 70
     1
102
RTVSPost2010Prop50
 90
       50
102
RTVSPost2010PropOp50
 70
     1
102
RTVSPost2010Prop51ColorIndex
 90
      256
102
RTVSPost2010Prop51ColorRGB
 90
-16777216
102
RTVSPost2010PropOp51
 70
     0
102
RTVSPost2010Prop52
140
1.0
102
RTVSPost2010PropOp52
 70
     0
102
RTVSPost2010Prop53
 90
        2
102
RTVSPost2010PropOp53
 70
     1
102
RTVSPost2010Prop54
  1
strokes_ogs.tif
102
RTVSPost2010PropOp54
 70
     1
102
RTVSPost2010Prop55
280
     0
102
RTVSPost2010PropOp55
 70
     1
102
RTVSPost2010Prop56
140
1.0
102
RTVSPost2010PropOp56
 70
     1
102
RTVSPost2010Prop57
140
1.0
102
RTVSPost2010PropOp57
 70
     1
  0
XRECORD
  5
253
102
{ACAD_REACTORS
330
252
102
}
330
252
100
AcDbXrecord
280
     1
102
RTVSPropertyOp0
 70
     1
102
RTVSPropertyOp1
 70
     1
102
RTVSPropertyOp2
 70
     1
102
RTVSPropertyOp3
 70
     1
102
RTVSPropertyOp4
 70
     1
102
RTVSPropertyOp5
 70
     1
102
RTVSPropertyOp6
 70
     1
102
RTVSPropertyOp7
 70
     1
102
RTVSPropertyOp8
 70
     1
102
RTVSPropertyOp9
 70
     1
102
RTVSPropertyOp10
 70
     1
102
RTVSPropertyOp11
 70
     1
102
RTVSPropertyOp12
 70
     1
102
RTVSPropertyOp13
 70
     1
102
RTVSPropertyOp14
 70
     1
102
RTVSPropertyOp15
 70
     1
102
RTVSPropertyOp16
 70
     1
102
RTVSPropertyOp17
 70
     1
102
RTVSPropertyOp18
 70
     1
102
RTVSPropertyOp19
 70
     1
102
RTVSPropertyOp20
 70
     1
102
RTVSPropertyOp21
 70
     1
102
RTVSPropertyOp22
 70
     1
102
RTVSPropertyOp23
 70
     1
102
RTVSPropertyOp24
 70
     1
102
RTVSPropertyOp25
 70
     1
102
RTVSPropertyOp26
 70
     1
102
RTVSPropertyOp27
 70
     1
102
RTVSPropertyOp28
 70
     1
102
RTVSPropertyOp29
 70
     1
102
RTVSPropertyOp30
 70
     1
102
RTVSPropertyOp31
 70
     1
102
RTVSPropertyOp32
 70
     1
102
RTVSPropertyOp33
 70
     1
102
RTVSPropertyOp34
 70
     1
102
RTVSPropertyOp35
 70
     1
102
RTVSPropertyOp36
 70
     1
102
RTVSPropertyOp37
 70
     1
102
RTVSPropertyOp38
 70
     1
102
RTVSPropertyOp39
 70
     1
102
RTVSPropertyOp40
 70
     1
102
RTVSPropertyOp41
 70
     1
102
RTVSPropertyOp42
 70
     1
102
RTVSPropertyOp43
 70
     1
102
RTVSPropertyOp44
 70
     1
102
RTVSPropertyOp45
 70
     1
102
RTVSPropertyOp46
 70
     1
102
RTVSPropertyOp47
 70
     1
102
RTVSPropertyOp48
 70
     1
102
RTVSPropertyOp49
 70
     1
102
RTVSPropertyOp50
 70
     1
102
RTVSPropertyOp51
 70
     0
102
RTVSPropertyOp52
 70
     0
102
RTVSPropertyOp53
 70
     1
102
RTVSPropertyOp54
 70
     1
102
RTVSPropertyOp55
 70
     1
102
RTVSPropertyOp56
 70
     1
102
RTVSPropertyOp57
 70
     1
102
RTVSPost2010Prop28
280
     0
102
RTVSPost2010PropOp28
 70
     1
102
RTVSPost2010Prop29
280
     1
102
RTVSPost2010PropOp29
 70
     1
102
RTVSPost2010Prop30
280
     1
102
RTVSPost2010PropOp30
 70
     1
102
RTVSPost2010Prop31
280
     0
102
RTVSPost2010PropOp31
 70
     1
102
RTVSPost2010Prop32
280
     0
102
RTVSPost2010PropOp32
 70
     1
102
RTVSPost2010Prop33
280
     0
102
RTVSPost2010PropOp33
 70
     1
102
RTVSPost2010Prop34
280
     0
102
RTVSPost2010PropOp34
 70
     1
102
RTVSPost2010Prop35
280
     0
102
RTVSPost2010PropOp35
 70
     1
102
RTVSPost2010Prop36
280
     0
102
RTVSPost2010PropOp36
 70
     1
102
RTVSPost2010Prop37
 90
       50
102
RTVSPost2010PropOp37
 70
     1
102
RTVSPost2010Prop38
140
0.0
102
RTVSPost2010PropOp38
 70
     1
102
RTVSPost2010Prop39
140
1.0
102
RTVSPost2010PropOp39
 70
     1
102
RTVSPost2010Prop40
 90
        0
102
RTVSPost2010PropOp40
 70
     1
102
RTVSPost2010Prop41ColorIndex
 90
       18
102
RTVSPost2010Prop41ColorRGB
 90
        0
102
RTVSPost2010PropOp41
 70
     1
102
RTVSPost2010Prop42
 90
       50
102
RTVSPost2010PropOp42
 70
     1
102
RTVSPost2010Prop43
 90
        3
102
RTVSPost2010PropOp43
 70
     1
102
RTVSPost2010Prop44ColorIndex
 90
        5
102
RTVSPost2010Prop44ColorRGB
 90
      255
102
RTVSPost2010PropOp44
 70
     1
102
RTVSPost2010Prop45
280
     0
102
RTVSPost2010PropOp45
 70
     1
102
RTVSPost2010Prop46
 90
       50
102
RTVSPost2010PropOp46
 70
     1
102
RTVSPost2010Prop47
 90
       50
102
RTVSPost2010PropOp47
 70
     1
102
RTVSPost2010Prop48
 90
       50
102
RTVSPost2010PropOp48
 70
     1
102
RTVSPost2010Prop49
280
     0
102
RTVSPost2010PropOp49
 70
     1
102
RTVSPost2010Prop50
 90
       50
102
RTVSPost2010PropOp50
 70
     1
102
RTVSPost2010Prop51ColorIndex
 90
      256
102
RTVSPost2010Prop51ColorRGB
 90
-16777216
102
RTVSPost2010PropOp51
 70
     0
102
RTVSPost2010Prop52
140
1.0
102
RTVSPost2010PropOp52
 70
     0
102
RTVSPost2010Prop53
 90
        2
102
RTVSPost2010PropOp53
 70
     1
102
RTVSPost2010Prop54
  1
strokes_ogs.tif
102
RTVSPost2010PropOp54
 70
     1
102
RTVSPost2010Prop55
280
     0
102
RTVSPost2010PropOp55
 70
     1
102
RTVSPost2010Prop56
140
1.0
102
RTVSPost2010PropOp56
 70
     1
102
RTVSPost2010Prop57
140
1.0
102
RTVSPost2010PropOp57
 70
     1
  0
XRECORD
  5
255
102
{ACAD_REACTORS
330
254
102
}
330
254
100
AcDbXrecord
280
     1
102
RTVSPropertyOp0
 70
     1
102
RTVSPropertyOp1
 70
     1
102
RTVSPropertyOp2
 70
     1
102
RTVSPropertyOp3
 70
     1
102
RTVSPropertyOp4
 70
     1
102
RTVSPropertyOp5
 70
     1
102
RTVSPropertyOp6
 70
     1
102
RTVSPropertyOp7
 70
     1
102
RTVSPropertyOp8
 70
     1
102
RTVSPropertyOp9
 70
     1
102
RTVSPropertyOp10
 70
     1
102
RTVSPropertyOp11
 70
     1
102
RTVSPropertyOp12
 70
     1
102
RTVSPropertyOp13
 70
     1
102
RTVSPropertyOp14
 70
     1
102
RTVSPropertyOp15
 70
     1
102
RTVSPropertyOp16
 70
     1
102
RTVSPropertyOp17
 70
     1
102
RTVSPropertyOp18
 70
     1
102
RTVSPropertyOp19
 70
     1
102
RTVSPropertyOp20
 70
     1
102
RTVSPropertyOp21
 70
     1
102
RTVSPropertyOp22
 70
     1
102
RTVSPropertyOp23
 70
     1
102
RTVSPropertyOp24
 70
     1
102
RTVSPropertyOp25
 70
     1
102
RTVSPropertyOp26
 70
     1
102
RTVSPropertyOp27
 70
     1
102
RTVSPropertyOp28
 70
     1
102
RTVSPropertyOp29
 70
     1
102
RTVSPropertyOp30
 70
     1
102
RTVSPropertyOp31
 70
     1
102
RTVSPropertyOp32
 70
     1
102
RTVSPropertyOp33
 70
     1
102
RTVSPropertyOp34
 70
     1
102
RTVSPropertyOp35
 70
     1
102
RTVSPropertyOp36
 70
     1
102
RTVSPropertyOp37
 70
     1
102
RTVSPropertyOp38
 70
     1
102
RTVSPropertyOp39
 70
     1
102
RTVSPropertyOp40
 70
     1
102
RTVSPropertyOp41
 70
     1
102
RTVSPropertyOp42
 70
     1
102
RTVSPropertyOp43
 70
     1
102
RTVSPropertyOp44
 70
     1
102
RTVSPropertyOp45
 70
     1
102
RTVSPropertyOp46
 70
     1
102
RTVSPropertyOp47
 70
     1
102
RTVSPropertyOp48
 70
     1
102
RTVSPropertyOp49
 70
     1
102
RTVSPropertyOp50
 70
     1
102
RTVSPropertyOp51
 70
     0
102
RTVSPropertyOp52
 70
     0
102
RTVSPropertyOp53
 70
     1
102
RTVSPropertyOp54
 70
     1
102
RTVSPropertyOp55
 70
     1
102
RTVSPropertyOp56
 70
     1
102
RTVSPropertyOp57
 70
     1
102
RTVSPost2010Prop28
280
     0
102
RTVSPost2010PropOp28
 70
     1
102
RTVSPost2010Prop29
280
     1
102
RTVSPost2010PropOp29
 70
     1
102
RTVSPost2010Prop30
280
     1
102
RTVSPost2010PropOp30
 70
     1
102
RTVSPost2010Prop31
280
     0
102
RTVSPost2010PropOp31
 70
     1
102
RTVSPost2010Prop32
280
     0
102
RTVSPost2010PropOp32
 70
     1
102
RTVSPost2010Prop33
280
     0
102
RTVSPost2010PropOp33
 70
     1
102
RTVSPost2010Prop34
280
     0
102
RTVSPost2010PropOp34
 70
     1
102
RTVSPost2010Prop35
280
     0
102
RTVSPost2010PropOp35
 70
     1
102
RTVSPost2010Prop36
280
     0
102
RTVSPost2010PropOp36
 70
     1
102
RTVSPost2010Prop37
 90
       50
102
RTVSPost2010PropOp37
 70
     1
102
RTVSPost2010Prop38
140
0.0
102
RTVSPost2010PropOp38
 70
     1
102
RTVSPost2010Prop39
140
1.0
102
RTVSPost2010PropOp39
 70
     1
102
RTVSPost2010Prop40
 90
        0
102
RTVSPost2010PropOp40
 70
     1
102
RTVSPost2010Prop41ColorIndex
 90
       18
102
RTVSPost2010Prop41ColorRGB
 90
        0
102
RTVSPost2010PropOp41
 70
     1
102
RTVSPost2010Prop42
 90
       50
102
RTVSPost2010PropOp42
 70
     1
102
RTVSPost2010Prop43
 90
        3
102
RTVSPost2010PropOp43
 70
     1
102
RTVSPost2010Prop44ColorIndex
 90
        5
102
RTVSPost2010Prop44ColorRGB
 90
      255
102
RTVSPost2010PropOp44
 70
     1
102
RTVSPost2010Prop45
280
     0
102
RTVSPost2010PropOp45
 70
     1
102
RTVSPost2010Prop46
 90
       50
102
RTVSPost2010PropOp46
 70
     1
102
RTVSPost2010Prop47
 90
       50
102
RTVSPost2010PropOp47
 70
     1
102
RTVSPost2010Prop48
 90
       50
102
RTVSPost2010PropOp48
 70
     1
102
RTVSPost2010Prop49
280
     0
102
RTVSPost2010PropOp49
 70
     1
102
RTVSPost2010Prop50
 90
       50
102
RTVSPost2010PropOp50
 70
     1
102
RTVSPost2010Prop51ColorIndex
 90
      256
102
RTVSPost2010Prop51ColorRGB
 90
-16777216
102
RTVSPost2010PropOp51
 70
     0
102
RTVSPost2010Prop52
140
1.0
102
RTVSPost2010PropOp52
 70
     0
102
RTVSPost2010Prop53
 90
        2
102
RTVSPost2010PropOp53
 70
     1
102
RTVSPost2010Prop54
  1
strokes_ogs.tif
102
RTVSPost2010PropOp54
 70
     1
102
RTVSPost2010Prop55
280
     0
102
RTVSPost2010PropOp55
 70
     1
102
RTVSPost2010Prop56
140
1.0
102
RTVSPost2010PropOp56
 70
     1
102
RTVSPost2010Prop57
140
1.0
102
RTVSPost2010PropOp57
 70
     1
  0
XRECORD
  5
25B
102
{ACAD_REACTORS
330
25A
102
}
330
25A
100
AcDbXrecord
280
     1
102
RTVSPropertyOp0
 70
     1
102
RTVSPropertyOp1
 70
     1
102
RTVSPropertyOp2
 70
     1
102
RTVSPropertyOp3
 70
     1
102
RTVSPropertyOp4
 70
     1
102
RTVSPropertyOp5
 70
     1
102
RTVSPropertyOp6
 70
     1
102
RTVSPropertyOp7
 70
     1
102
RTVSPropertyOp8
 70
     1
102
RTVSPropertyOp9
 70
     1
102
RTVSPropertyOp10
 70
     1
102
RTVSPropertyOp11
 70
     1
102
RTVSPropertyOp12
 70
     1
102
RTVSPropertyOp13
 70
     1
102
RTVSPropertyOp14
 70
     1
102
RTVSPropertyOp15
 70
     1
102
RTVSPropertyOp16
 70
     1
102
RTVSPropertyOp17
 70
     1
102
RTVSPropertyOp18
 70
     1
102
RTVSPropertyOp19
 70
     1
102
RTVSPropertyOp20
 70
     1
102
RTVSPropertyOp21
 70
     1
102
RTVSPropertyOp22
 70
     1
102
RTVSPropertyOp23
 70
     1
102
RTVSPropertyOp24
 70
     1
102
RTVSPropertyOp25
 70
     1
102
RTVSPropertyOp26
 70
     1
102
RTVSPropertyOp27
 70
     1
102
RTVSPropertyOp28
 70
     1
102
RTVSPropertyOp29
 70
     1
102
RTVSPropertyOp30
 70
     1
102
RTVSPropertyOp31
 70
     1
102
RTVSPropertyOp32
 70
     1
102
RTVSPropertyOp33
 70
     1
102
RTVSPropertyOp34
 70
     1
102
RTVSPropertyOp35
 70
     1
102
RTVSPropertyOp36
 70
     1
102
RTVSPropertyOp37
 70
     1
102
RTVSPropertyOp38
 70
     1
102
RTVSPropertyOp39
 70
     1
102
RTVSPropertyOp40
 70
     1
102
RTVSPropertyOp41
 70
     1
102
RTVSPropertyOp42
 70
     1
102
RTVSPropertyOp43
 70
     1
102
RTVSPropertyOp44
 70
     1
102
RTVSPropertyOp45
 70
     1
102
RTVSPropertyOp46
 70
     1
102
RTVSPropertyOp47
 70
     1
102
RTVSPropertyOp48
 70
     1
102
RTVSPropertyOp49
 70
     1
102
RTVSPropertyOp50
 70
     1
102
RTVSPropertyOp51
 70
     0
102
RTVSPropertyOp52
 70
     0
102
RTVSPropertyOp53
 70
     1
102
RTVSPropertyOp54
 70
     1
102
RTVSPropertyOp55
 70
     1
102
RTVSPropertyOp56
 70
     1
102
RTVSPropertyOp57
 70
     1
102
RTVSPost2010Prop28
280
     0
102
RTVSPost2010PropOp28
 70
     1
102
RTVSPost2010Prop29
280
     1
102
RTVSPost2010PropOp29
 70
     1
102
RTVSPost2010Prop30
280
     1
102
RTVSPost2010PropOp30
 70
     1
102
RTVSPost2010Prop31
280
     0
102
RTVSPost2010PropOp31
 70
     1
102
RTVSPost2010Prop32
280
     0
102
RTVSPost2010PropOp32
 70
     1
102
RTVSPost2010Prop33
280
     0
102
RTVSPost2010PropOp33
 70
     1
102
RTVSPost2010Prop34
280
     0
102
RTVSPost2010PropOp34
 70
     1
102
RTVSPost2010Prop35
280
     0
102
RTVSPost2010PropOp35
 70
     1
102
RTVSPost2010Prop36
280
     0
102
RTVSPost2010PropOp36
 70
     1
102
RTVSPost2010Prop37
 90
       50
102
RTVSPost2010PropOp37
 70
     1
102
RTVSPost2010Prop38
140
0.0
102
RTVSPost2010PropOp38
 70
     1
102
RTVSPost2010Prop39
140
1.0
102
RTVSPost2010PropOp39
 70
     1
102
RTVSPost2010Prop40
 90
        0
102
RTVSPost2010PropOp40
 70
     1
102
RTVSPost2010Prop41ColorIndex
 90
       18
102
RTVSPost2010Prop41ColorRGB
 90
        0
102
RTVSPost2010PropOp41
 70
     1
102
RTVSPost2010Prop42
 90
       50
102
RTVSPost2010PropOp42
 70
     1
102
RTVSPost2010Prop43
 90
        3
102
RTVSPost2010PropOp43
 70
     1
102
RTVSPost2010Prop44ColorIndex
 90
        5
102
RTVSPost2010Prop44ColorRGB
 90
      255
102
RTVSPost2010PropOp44
 70
     1
102
RTVSPost2010Prop45
280
     0
102
RTVSPost2010PropOp45
 70
     1
102
RTVSPost2010Prop46
 90
       50
102
RTVSPost2010PropOp46
 70
     1
102
RTVSPost2010Prop47
 90
       50
102
RTVSPost2010PropOp47
 70
     1
102
RTVSPost2010Prop48
 90
       50
102
RTVSPost2010PropOp48
 70
     1
102
RTVSPost2010Prop49
280
     0
102
RTVSPost2010PropOp49
 70
     1
102
RTVSPost2010Prop50
 90
       50
102
RTVSPost2010PropOp50
 70
     1
102
RTVSPost2010Prop51ColorIndex
 90
      256
102
RTVSPost2010Prop51ColorRGB
 90
-16777216
102
RTVSPost2010PropOp51
 70
     0
102
RTVSPost2010Prop52
140
1.0
102
RTVSPost2010PropOp52
 70
     0
102
RTVSPost2010Prop53
 90
        2
102
RTVSPost2010PropOp53
 70
     1
102
RTVSPost2010Prop54
  1
strokes_ogs.tif
102
RTVSPost2010PropOp54
 70
     1
102
RTVSPost2010Prop55
280
     0
102
RTVSPost2010PropOp55
 70
     1
102
RTVSPost2010Prop56
140
1.0
102
RTVSPost2010PropOp56
 70
     1
102
RTVSPost2010Prop57
140
1.0
102
RTVSPost2010PropOp57
 70
     1
  0
XRECORD
  5
26F
102
{ACAD_REACTORS
330
26E
102
}
330
26E
100
AcDbXrecord
280
     1
102
RTVSPropertyOp0
 70
     0
102
RTVSPropertyOp1
 70
     0
102
RTVSPropertyOp2
 70
     0
102
RTVSPropertyOp3
 70
     0
102
RTVSPropertyOp4
 70
     0
102
RTVSPropertyOp5
 70
     0
102
RTVSPropertyOp6
 70
     0
102
RTVSPropertyOp7
 70
     0
102
RTVSPropertyOp8
 70
     0
102
RTVSPropertyOp9
 70
     0
102
RTVSPropertyOp10
 70
     0
102
RTVSPropertyOp11
 70
     0
102
RTVSPropertyOp12
 70
     0
102
RTVSPropertyOp13
 70
     0
102
RTVSPropertyOp14
 70
     2
102
RTVSPropertyOp15
 70
     0
102
RTVSPropertyOp16
 70
     0
102
RTVSPropertyOp17
 70
     0
102
RTVSPropertyOp18
 70
     0
102
RTVSPropertyOp19
 70
     0
102
RTVSPropertyOp20
 70
     0
102
RTVSPropertyOp21
 70
     0
102
RTVSPropertyOp22
 70
     0
102
RTVSPropertyOp23
 70
     0
102
RTVSPropertyOp24
 70
     0
102
RTVSPropertyOp25
 70
     0
102
RTVSPropertyOp26
 70
     0
102
RTVSPropertyOp27
 70
     0
102
RTVSPropertyOp28
 70
     0
102
RTVSPropertyOp29
 70
     0
102
RTVSPropertyOp30
 70
     0
102
RTVSPropertyOp31
 70
     0
102
RTVSPropertyOp32
 70
     0
102
RTVSPropertyOp33
 70
     0
102
RTVSPropertyOp34
 70
     0
102
RTVSPropertyOp35
 70
     0
102
RTVSPropertyOp36
 70
     0
102
RTVSPropertyOp37
 70
     0
102
RTVSPropertyOp38
 70
     0
102
RTVSPropertyOp39
 70
     0
102
RTVSPropertyOp40
 70
     0
102
RTVSPropertyOp41
 70
     0
102
RTVSPropertyOp42
 70
     0
102
RTVSPropertyOp43
 70
     0
102
RTVSPropertyOp44
 70
     0
102
RTVSPropertyOp45
 70
     0
102
RTVSPropertyOp46
 70
     0
102
RTVSPropertyOp47
 70
     0
102
RTVSPropertyOp48
 70
     0
102
RTVSPropertyOp49
 70
     0
102
RTVSPropertyOp50
 70
     0
102
RTVSPropertyOp51
 70
     0
102
RTVSPropertyOp52
 70
     0
102
RTVSPropertyOp53
 70
     0
102
RTVSPropertyOp54
 70
     0
102
RTVSPropertyOp55
 70
     0
102
RTVSPropertyOp56
 70
     0
102
RTVSPropertyOp57
 70
     0
102
RTVSPost2010Prop28
280
     0
102
RTVSPost2010PropOp28
 70
     0
102
RTVSPost2010Prop29
280
     1
102
RTVSPost2010PropOp29
 70
     0
102
RTVSPost2010Prop30
280
     1
102
RTVSPost2010PropOp30
 70
     0
102
RTVSPost2010Prop31
280
     0
102
RTVSPost2010PropOp31
 70
     0
102
RTVSPost2010Prop32
280
     0
102
RTVSPost2010PropOp32
 70
     0
102
RTVSPost2010Prop33
280
     0
102
RTVSPost2010PropOp33
 70
     0
102
RTVSPost2010Prop34
280
     0
102
RTVSPost2010PropOp34
 70
     0
102
RTVSPost2010Prop35
280
     0
102
RTVSPost2010PropOp35
 70
     0
102
RTVSPost2010Prop36
280
     0
102
RTVSPost2010PropOp36
 70
     0
102
RTVSPost2010Prop37
 90
       50
102
RTVSPost2010PropOp37
 70
     0
102
RTVSPost2010Prop38
140
0.0
102
RTVSPost2010PropOp38
 70
     0
102
RTVSPost2010Prop39
140
1.0
102
RTVSPost2010PropOp39
 70
     0
102
RTVSPost2010Prop40
 90
        0
102
RTVSPost2010PropOp40
 70
     0
102
RTVSPost2010Prop41ColorIndex
 90
       18
102
RTVSPost2010Prop41ColorRGB
 90
        0
102
RTVSPost2010PropOp41
 70
     0
102
RTVSPost2010Prop42
 90
       50
102
RTVSPost2010PropOp42
 70
     0
102
RTVSPost2010Prop43
 90
        3
102
RTVSPost2010PropOp43
 70
     0
102
RTVSPost2010Prop44ColorIndex
 90
        5
102
RTVSPost2010Prop44ColorRGB
 90
      255
102
RTVSPost2010PropOp44
 70
     0
102
RTVSPost2010Prop45
280
     0
102
RTVSPost2010PropOp45
 70
     0
102
RTVSPost2010Prop46
 90
       50
102
RTVSPost2010PropOp46
 70
     0
102
RTVSPost2010Prop47
 90
       50
102
RTVSPost2010PropOp47
 70
     0
102
RTVSPost2010Prop48
 90
       50
102
RTVSPost2010PropOp48
 70
     0
102
RTVSPost2010Prop49
280
     0
102
RTVSPost2010PropOp49
 70
     0
102
RTVSPost2010Prop50
 90
       50
102
RTVSPost2010PropOp50
 70
     0
102
RTVSPost2010Prop51ColorIndex
 90
      256
102
RTVSPost2010Prop51ColorRGB
 90
-16777216
102
RTVSPost2010PropOp51
 70
     0
102
RTVSPost2010Prop52
140
1.0
102
RTVSPost2010PropOp52
 70
     0
102
RTVSPost2010Prop53
 90
        2
102
RTVSPost2010PropOp53
 70
     0
102
RTVSPost2010Prop54
  1
strokes_ogs.tif
102
RTVSPost2010PropOp54
 70
     0
102
RTVSPost2010Prop55
280
     0
102
RTVSPost2010PropOp55
 70
     0
102
RTVSPost2010Prop56
140
1.0
102
RTVSPost2010PropOp56
 70
     0
102
RTVSPost2010Prop57
140
1.0
102
RTVSPost2010PropOp57
 70
     0
  0
XRECORD
  5
269
102
{ACAD_REACTORS
330
268
102
}
330
268
100
AcDbXrecord
280
     1
102
RTVSPropertyOp0
 70
     1
102
RTVSPropertyOp1
 70
     1
102
RTVSPropertyOp2
 70
     1
102
RTVSPropertyOp3
 70
     1
102
RTVSPropertyOp4
 70
     1
102
RTVSPropertyOp5
 70
     1
102
RTVSPropertyOp6
 70
     1
102
RTVSPropertyOp7
 70
     1
102
RTVSPropertyOp8
 70
     1
102
RTVSPropertyOp9
 70
     1
102
RTVSPropertyOp10
 70
     1
102
RTVSPropertyOp11
 70
     1
102
RTVSPropertyOp12
 70
     1
102
RTVSPropertyOp13
 70
     1
102
RTVSPropertyOp14
 70
     1
102
RTVSPropertyOp15
 70
     1
102
RTVSPropertyOp16
 70
     1
102
RTVSPropertyOp17
 70
     1
102
RTVSPropertyOp18
 70
     1
102
RTVSPropertyOp19
 70
     1
102
RTVSPropertyOp20
 70
     1
102
RTVSPropertyOp21
 70
     1
102
RTVSPropertyOp22
 70
     1
102
RTVSPropertyOp23
 70
     1
102
RTVSPropertyOp24
 70
     1
102
RTVSPropertyOp25
 70
     1
102
RTVSPropertyOp26
 70
     1
102
RTVSPropertyOp27
 70
     1
102
RTVSPropertyOp28
 70
     1
102
RTVSPropertyOp29
 70
     1
102
RTVSPropertyOp30
 70
     1
102
RTVSPropertyOp31
 70
     1
102
RTVSPropertyOp32
 70
     1
102
RTVSPropertyOp33
 70
     1
102
RTVSPropertyOp34
 70
     1
102
RTVSPropertyOp35
 70
     1
102
RTVSPropertyOp36
 70
     1
102
RTVSPropertyOp37
 70
     1
102
RTVSPropertyOp38
 70
     1
102
RTVSPropertyOp39
 70
     1
102
RTVSPropertyOp40
 70
     1
102
RTVSPropertyOp41
 70
     1
102
RTVSPropertyOp42
 70
     1
102
RTVSPropertyOp43
 70
     1
102
RTVSPropertyOp44
 70
     1
102
RTVSPropertyOp45
 70
     1
102
RTVSPropertyOp46
 70
     1
102
RTVSPropertyOp47
 70
     1
102
RTVSPropertyOp48
 70
     1
102
RTVSPropertyOp49
 70
     1
102
RTVSPropertyOp50
 70
     1
102
RTVSPropertyOp51
 70
     0
102
RTVSPropertyOp52
 70
     0
102
RTVSPropertyOp53
 70
     1
102
RTVSPropertyOp54
 70
     1
102
RTVSPropertyOp55
 70
     1
102
RTVSPropertyOp56
 70
     1
102
RTVSPropertyOp57
 70
     1
102
RTVSPost2010Prop28
280
     0
102
RTVSPost2010PropOp28
 70
     1
102
RTVSPost2010Prop29
280
     1
102
RTVSPost2010PropOp29
 70
     1
102
RTVSPost2010Prop30
280
     1
102
RTVSPost2010PropOp30
 70
     1
102
RTVSPost2010Prop31
280
     0
102
RTVSPost2010PropOp31
 70
     1
102
RTVSPost2010Prop32
280
     0
102
RTVSPost2010PropOp32
 70
     1
102
RTVSPost2010Prop33
280
     0
102
RTVSPost2010PropOp33
 70
     1
102
RTVSPost2010Prop34
280
     0
102
RTVSPost2010PropOp34
 70
     1
102
RTVSPost2010Prop35
280
     0
102
RTVSPost2010PropOp35
 70
     1
102
RTVSPost2010Prop36
280
     0
102
RTVSPost2010PropOp36
 70
     1
102
RTVSPost2010Prop37
 90
       50
102
RTVSPost2010PropOp37
 70
     1
102
RTVSPost2010Prop38
140
0.0
102
RTVSPost2010PropOp38
 70
     1
102
RTVSPost2010Prop39
140
1.0
102
RTVSPost2010PropOp39
 70
     1
102
RTVSPost2010Prop40
 90
        0
102
RTVSPost2010PropOp40
 70
     1
102
RTVSPost2010Prop41ColorIndex
 90
       18
102
RTVSPost2010Prop41ColorRGB
 90
        0
102
RTVSPost2010PropOp41
 70
     1
102
RTVSPost2010Prop42
 90
       50
102
RTVSPost2010PropOp42
 70
     1
102
RTVSPost2010Prop43
 90
        3
102
RTVSPost2010PropOp43
 70
     1
102
RTVSPost2010Prop44ColorIndex
 90
        5
102
RTVSPost2010Prop44ColorRGB
 90
      255
102
RTVSPost2010PropOp44
 70
     1
102
RTVSPost2010Prop45
280
     0
102
RTVSPost2010PropOp45
 70
     1
102
RTVSPost2010Prop46
 90
       50
102
RTVSPost2010PropOp46
 70
     1
102
RTVSPost2010Prop47
 90
       50
102
RTVSPost2010PropOp47
 70
     1
102
RTVSPost2010Prop48
 90
       50
102
RTVSPost2010PropOp48
 70
     1
102
RTVSPost2010Prop49
280
     0
102
RTVSPost2010PropOp49
 70
     1
102
RTVSPost2010Prop50
 90
       50
102
RTVSPost2010PropOp50
 70
     1
102
RTVSPost2010Prop51ColorIndex
 90
      256
102
RTVSPost2010Prop51ColorRGB
 90
-16777216
102
RTVSPost2010PropOp51
 70
     0
102
RTVSPost2010Prop52
140
1.0
102
RTVSPost2010PropOp52
 70
     0
102
RTVSPost2010Prop53
 90
        2
102
RTVSPost2010PropOp53
 70
     1
102
RTVSPost2010Prop54
  1
strokes_ogs.tif
102
RTVSPost2010PropOp54
 70
     1
102
RTVSPost2010Prop55
280
     0
102
RTVSPost2010PropOp55
 70
     1
102
RTVSPost2010Prop56
140
1.0
102
RTVSPost2010PropOp56
 70
     1
102
RTVSPost2010Prop57
140
1.0
102
RTVSPost2010PropOp57
 70
     1
  0
XRECORD
  5
271
102
{ACAD_REACTORS
330
270
102
}
330
270
100
AcDbXrecord
280
     1
102
RTVSPropertyOp0
 70
     0
102
RTVSPropertyOp1
 70
     0
102
RTVSPropertyOp2
 70
     0
102
RTVSPropertyOp3
 70
     0
102
RTVSPropertyOp4
 70
     0
102
RTVSPropertyOp5
 70
     0
102
RTVSPropertyOp6
 70
     0
102
RTVSPropertyOp7
 70
     0
102
RTVSPropertyOp8
 70
     0
102
RTVSPropertyOp9
 70
     0
102
RTVSPropertyOp10
 70
     0
102
RTVSPropertyOp11
 70
     0
102
RTVSPropertyOp12
 70
     0
102
RTVSPropertyOp13
 70
     0
102
RTVSPropertyOp14
 70
     2
102
RTVSPropertyOp15
 70
     0
102
RTVSPropertyOp16
 70
     0
102
RTVSPropertyOp17
 70
     0
102
RTVSPropertyOp18
 70
     0
102
RTVSPropertyOp19
 70
     0
102
RTVSPropertyOp20
 70
     0
102
RTVSPropertyOp21
 70
     0
102
RTVSPropertyOp22
 70
     0
102
RTVSPropertyOp23
 70
     0
102
RTVSPropertyOp24
 70
     0
102
RTVSPropertyOp25
 70
     0
102
RTVSPropertyOp26
 70
     0
102
RTVSPropertyOp27
 70
     0
102
RTVSPropertyOp28
 70
     0
102
RTVSPropertyOp29
 70
     0
102
RTVSPropertyOp30
 70
     0
102
RTVSPropertyOp31
 70
     0
102
RTVSPropertyOp32
 70
     0
102
RTVSPropertyOp33
 70
     0
102
RTVSPropertyOp34
 70
     0
102
RTVSPropertyOp35
 70
     0
102
RTVSPropertyOp36
 70
     0
102
RTVSPropertyOp37
 70
     0
102
RTVSPropertyOp38
 70
     0
102
RTVSPropertyOp39
 70
     0
102
RTVSPropertyOp40
 70
     0
102
RTVSPropertyOp41
 70
     0
102
RTVSPropertyOp42
 70
     0
102
RTVSPropertyOp43
 70
     0
102
RTVSPropertyOp44
 70
     0
102
RTVSPropertyOp45
 70
     0
102
RTVSPropertyOp46
 70
     0
102
RTVSPropertyOp47
 70
     0
102
RTVSPropertyOp48
 70
     0
102
RTVSPropertyOp49
 70
     0
102
RTVSPropertyOp50
 70
     0
102
RTVSPropertyOp51
 70
     0
102
RTVSPropertyOp52
 70
     0
102
RTVSPropertyOp53
 70
     0
102
RTVSPropertyOp54
 70
     0
102
RTVSPropertyOp55
 70
     0
102
RTVSPropertyOp56
 70
     0
102
RTVSPropertyOp57
 70
     0
102
RTVSPost2010Prop28
280
     0
102
RTVSPost2010PropOp28
 70
     0
102
RTVSPost2010Prop29
280
     1
102
RTVSPost2010PropOp29
 70
     0
102
RTVSPost2010Prop30
280
     1
102
RTVSPost2010PropOp30
 70
     0
102
RTVSPost2010Prop31
280
     0
102
RTVSPost2010PropOp31
 70
     0
102
RTVSPost2010Prop32
280
     0
102
RTVSPost2010PropOp32
 70
     0
102
RTVSPost2010Prop33
280
     0
102
RTVSPost2010PropOp33
 70
     0
102
RTVSPost2010Prop34
280
     0
102
RTVSPost2010PropOp34
 70
     0
102
RTVSPost2010Prop35
280
     0
102
RTVSPost2010PropOp35
 70
     0
102
RTVSPost2010Prop36
280
     0
102
RTVSPost2010PropOp36
 70
     0
102
RTVSPost2010Prop37
 90
       50
102
RTVSPost2010PropOp37
 70
     0
102
RTVSPost2010Prop38
140
0.0
102
RTVSPost2010PropOp38
 70
     0
102
RTVSPost2010Prop39
140
1.0
102
RTVSPost2010PropOp39
 70
     0
102
RTVSPost2010Prop40
 90
        0
102
RTVSPost2010PropOp40
 70
     0
102
RTVSPost2010Prop41ColorIndex
 90
       18
102
RTVSPost2010Prop41ColorRGB
 90
        0
102
RTVSPost2010PropOp41
 70
     0
102
RTVSPost2010Prop42
 90
       50
102
RTVSPost2010PropOp42
 70
     0
102
RTVSPost2010Prop43
 90
        3
102
RTVSPost2010PropOp43
 70
     0
102
RTVSPost2010Prop44ColorIndex
 90
        5
102
RTVSPost2010Prop44ColorRGB
 90
      255
102
RTVSPost2010PropOp44
 70
     0
102
RTVSPost2010Prop45
280
     0
102
RTVSPost2010PropOp45
 70
     0
102
RTVSPost2010Prop46
 90
       50
102
RTVSPost2010PropOp46
 70
     0
102
RTVSPost2010Prop47
 90
       50
102
RTVSPost2010PropOp47
 70
     0
102
RTVSPost2010Prop48
 90
       50
102
RTVSPost2010PropOp48
 70
     0
102
RTVSPost2010Prop49
280
     0
102
RTVSPost2010PropOp49
 70
     0
102
RTVSPost2010Prop50
 90
       50
102
RTVSPost2010PropOp50
 70
     0
102
RTVSPost2010Prop51ColorIndex
 90
      256
102
RTVSPost2010Prop51ColorRGB
 90
-16777216
102
RTVSPost2010PropOp51
 70
     0
102
RTVSPost2010Prop52
140
1.0
102
RTVSPost2010PropOp52
 70
     0
102
RTVSPost2010Prop53
 90
        2
102
RTVSPost2010PropOp53
 70
     0
102
RTVSPost2010Prop54
  1
strokes_ogs.tif
102
RTVSPost2010PropOp54
 70
     0
102
RTVSPost2010Prop55
280
     0
102
RTVSPost2010PropOp55
 70
     0
102
RTVSPost2010Prop56
140
1.0
102
RTVSPost2010PropOp56
 70
     0
102
RTVSPost2010Prop57
140
1.0
102
RTVSPost2010PropOp57
 70
     0
  0
XRECORD
  5
25F
102
{ACAD_REACTORS
330
25E
102
}
330
25E
100
AcDbXrecord
280
     1
102
RTVSPropertyOp0
 70
     1
102
RTVSPropertyOp1
 70
     1
102
RTVSPropertyOp2
 70
     1
102
RTVSPropertyOp3
 70
     1
102
RTVSPropertyOp4
 70
     1
102
RTVSPropertyOp5
 70
     1
102
RTVSPropertyOp6
 70
     1
102
RTVSPropertyOp7
 70
     1
102
RTVSPropertyOp8
 70
     1
102
RTVSPropertyOp9
 70
     1
102
RTVSPropertyOp10
 70
     1
102
RTVSPropertyOp11
 70
     1
102
RTVSPropertyOp12
 70
     1
102
RTVSPropertyOp13
 70
     1
102
RTVSPropertyOp14
 70
     1
102
RTVSPropertyOp15
 70
     1
102
RTVSPropertyOp16
 70
     1
102
RTVSPropertyOp17
 70
     1
102
RTVSPropertyOp18
 70
     1
102
RTVSPropertyOp19
 70
     1
102
RTVSPropertyOp20
 70
     1
102
RTVSPropertyOp21
 70
     1
102
RTVSPropertyOp22
 70
     1
102
RTVSPropertyOp23
 70
     1
102
RTVSPropertyOp24
 70
     1
102
RTVSPropertyOp25
 70
     1
102
RTVSPropertyOp26
 70
     1
102
RTVSPropertyOp27
 70
     1
102
RTVSPropertyOp28
 70
     1
102
RTVSPropertyOp29
 70
     1
102
RTVSPropertyOp30
 70
     1
102
RTVSPropertyOp31
 70
     1
102
RTVSPropertyOp32
 70
     1
102
RTVSPropertyOp33
 70
     1
102
RTVSPropertyOp34
 70
     1
102
RTVSPropertyOp35
 70
     1
102
RTVSPropertyOp36
 70
     1
102
RTVSPropertyOp37
 70
     1
102
RTVSPropertyOp38
 70
     1
102
RTVSPropertyOp39
 70
     1
102
RTVSPropertyOp40
 70
     1
102
RTVSPropertyOp41
 70
     1
102
RTVSPropertyOp42
 70
     1
102
RTVSPropertyOp43
 70
     1
102
RTVSPropertyOp44
 70
     1
102
RTVSPropertyOp45
 70
     1
102
RTVSPropertyOp46
 70
     1
102
RTVSPropertyOp47
 70
     1
102
RTVSPropertyOp48
 70
     1
102
RTVSPropertyOp49
 70
     1
102
RTVSPropertyOp50
 70
     1
102
RTVSPropertyOp51
 70
     0
102
RTVSPropertyOp52
 70
     0
102
RTVSPropertyOp53
 70
     1
102
RTVSPropertyOp54
 70
     1
102
RTVSPropertyOp55
 70
     1
102
RTVSPropertyOp56
 70
     1
102
RTVSPropertyOp57
 70
     1
102
RTVSPost2010Prop28
280
     0
102
RTVSPost2010PropOp28
 70
     1
102
RTVSPost2010Prop29
280
     1
102
RTVSPost2010PropOp29
 70
     1
102
RTVSPost2010Prop30
280
     1
102
RTVSPost2010PropOp30
 70
     1
102
RTVSPost2010Prop31
280
     0
102
RTVSPost2010PropOp31
 70
     1
102
RTVSPost2010Prop32
280
     0
102
RTVSPost2010PropOp32
 70
     1
102
RTVSPost2010Prop33
280
     0
102
RTVSPost2010PropOp33
 70
     1
102
RTVSPost2010Prop34
280
     0
102
RTVSPost2010PropOp34
 70
     1
102
RTVSPost2010Prop35
280
     0
102
RTVSPost2010PropOp35
 70
     1
102
RTVSPost2010Prop36
280
     0
102
RTVSPost2010PropOp36
 70
     1
102
RTVSPost2010Prop37
 90
       50
102
RTVSPost2010PropOp37
 70
     1
102
RTVSPost2010Prop38
140
0.0
102
RTVSPost2010PropOp38
 70
     1
102
RTVSPost2010Prop39
140
1.0
102
RTVSPost2010PropOp39
 70
     1
102
RTVSPost2010Prop40
 90
        0
102
RTVSPost2010PropOp40
 70
     1
102
RTVSPost2010Prop41ColorIndex
 90
       18
102
RTVSPost2010Prop41ColorRGB
 90
        0
102
RTVSPost2010PropOp41
 70
     1
102
RTVSPost2010Prop42
 90
       50
102
RTVSPost2010PropOp42
 70
     1
102
RTVSPost2010Prop43
 90
        3
102
RTVSPost2010PropOp43
 70
     1
102
RTVSPost2010Prop44ColorIndex
 90
        5
102
RTVSPost2010Prop44ColorRGB
 90
      255
102
RTVSPost2010PropOp44
 70
     1
102
RTVSPost2010Prop45
280
     0
102
RTVSPost2010PropOp45
 70
     1
102
RTVSPost2010Prop46
 90
       50
102
RTVSPost2010PropOp46
 70
     1
102
RTVSPost2010Prop47
 90
       50
102
RTVSPost2010PropOp47
 70
     1
102
RTVSPost2010Prop48
 90
       50
102
RTVSPost2010PropOp48
 70
     1
102
RTVSPost2010Prop49
280
     0
102
RTVSPost2010PropOp49
 70
     1
102
RTVSPost2010Prop50
 90
       50
102
RTVSPost2010PropOp50
 70
     1
102
RTVSPost2010Prop51ColorIndex
 90
      256
102
RTVSPost2010Prop51ColorRGB
 90
-16777216
102
RTVSPost2010PropOp51
 70
     0
102
RTVSPost2010Prop52
140
1.0
102
RTVSPost2010PropOp52
 70
     0
102
RTVSPost2010Prop53
 90
        2
102
RTVSPost2010PropOp53
 70
     1
102
RTVSPost2010Prop54
  1
strokes_ogs.tif
102
RTVSPost2010PropOp54
 70
     1
102
RTVSPost2010Prop55
280
     0
102
RTVSPost2010PropOp55
 70
     1
102
RTVSPost2010Prop56
140
1.0
102
RTVSPost2010PropOp56
 70
     1
102
RTVSPost2010Prop57
140
1.0
102
RTVSPost2010PropOp57
 70
     1
  0
XRECORD
  5
27D
102
{ACAD_REACTORS
330
27C
102
}
330
27C
100
AcDbXrecord
280
     1
102
RTVSPropertyOp0
 70
     1
102
RTVSPropertyOp1
 70
     1
102
RTVSPropertyOp2
 70
     1
102
RTVSPropertyOp3
 70
     1
102
RTVSPropertyOp4
 70
     1
102
RTVSPropertyOp5
 70
     1
102
RTVSPropertyOp6
 70
     1
102
RTVSPropertyOp7
 70
     1
102
RTVSPropertyOp8
 70
     1
102
RTVSPropertyOp9
 70
     1
102
RTVSPropertyOp10
 70
     1
102
RTVSPropertyOp11
 70
     1
102
RTVSPropertyOp12
 70
     1
102
RTVSPropertyOp13
 70
     1
102
RTVSPropertyOp14
 70
     1
102
RTVSPropertyOp15
 70
     1
102
RTVSPropertyOp16
 70
     1
102
RTVSPropertyOp17
 70
     1
102
RTVSPropertyOp18
 70
     1
102
RTVSPropertyOp19
 70
     1
102
RTVSPropertyOp20
 70
     1
102
RTVSPropertyOp21
 70
     1
102
RTVSPropertyOp22
 70
     1
102
RTVSPropertyOp23
 70
     1
102
RTVSPropertyOp24
 70
     1
102
RTVSPropertyOp25
 70
     1
102
RTVSPropertyOp26
 70
     1
102
RTVSPropertyOp27
 70
     1
102
RTVSPropertyOp28
 70
     1
102
RTVSPropertyOp29
 70
     1
102
RTVSPropertyOp30
 70
     1
102
RTVSPropertyOp31
 70
     1
102
RTVSPropertyOp32
 70
     1
102
RTVSPropertyOp33
 70
     1
102
RTVSPropertyOp34
 70
     1
102
RTVSPropertyOp35
 70
     1
102
RTVSPropertyOp36
 70
     1
102
RTVSPropertyOp37
 70
     1
102
RTVSPropertyOp38
 70
     1
102
RTVSPropertyOp39
 70
     1
102
RTVSPropertyOp40
 70
     1
102
RTVSPropertyOp41
 70
     1
102
RTVSPropertyOp42
 70
     1
102
RTVSPropertyOp43
 70
     1
102
RTVSPropertyOp44
 70
     1
102
RTVSPropertyOp45
 70
     1
102
RTVSPropertyOp46
 70
     1
102
RTVSPropertyOp47
 70
     1
102
RTVSPropertyOp48
 70
     1
102
RTVSPropertyOp49
 70
     1
102
RTVSPropertyOp50
 70
     1
102
RTVSPropertyOp51
 70
     0
102
RTVSPropertyOp52
 70
     0
102
RTVSPropertyOp53
 70
     1
102
RTVSPropertyOp54
 70
     1
102
RTVSPropertyOp55
 70
     1
102
RTVSPropertyOp56
 70
     1
102
RTVSPropertyOp57
 70
     1
102
RTVSPost2010Prop28
280
     0
102
RTVSPost2010PropOp28
 70
     1
102
RTVSPost2010Prop29
280
     1
102
RTVSPost2010PropOp29
 70
     1
102
RTVSPost2010Prop30
280
     1
102
RTVSPost2010PropOp30
 70
     1
102
RTVSPost2010Prop31
280
     0
102
RTVSPost2010PropOp31
 70
     1
102
RTVSPost2010Prop32
280
     0
102
RTVSPost2010PropOp32
 70
     1
102
RTVSPost2010Prop33
280
     0
102
RTVSPost2010PropOp33
 70
     1
102
RTVSPost2010Prop34
280
     0
102
RTVSPost2010PropOp34
 70
     1
102
RTVSPost2010Prop35
280
     0
102
RTVSPost2010PropOp35
 70
     1
102
RTVSPost2010Prop36
280
     0
102
RTVSPost2010PropOp36
 70
     1
102
RTVSPost2010Prop37
 90
       50
102
RTVSPost2010PropOp37
 70
     1
102
RTVSPost2010Prop38
140
0.0
102
RTVSPost2010PropOp38
 70
     1
102
RTVSPost2010Prop39
140
1.0
102
RTVSPost2010PropOp39
 70
     1
102
RTVSPost2010Prop40
 90
        0
102
RTVSPost2010PropOp40
 70
     1
102
RTVSPost2010Prop41ColorIndex
 90
       18
102
RTVSPost2010Prop41ColorRGB
 90
        0
102
RTVSPost2010PropOp41
 70
     1
102
RTVSPost2010Prop42
 90
       50
102
RTVSPost2010PropOp42
 70
     1
102
RTVSPost2010Prop43
 90
        3
102
RTVSPost2010PropOp43
 70
     1
102
RTVSPost2010Prop44ColorIndex
 90
        5
102
RTVSPost2010Prop44ColorRGB
 90
      255
102
RTVSPost2010PropOp44
 70
     1
102
RTVSPost2010Prop45
280
     0
102
RTVSPost2010PropOp45
 70
     1
102
RTVSPost2010Prop46
 90
       50
102
RTVSPost2010PropOp46
 70
     1
102
RTVSPost2010Prop47
 90
       50
102
RTVSPost2010PropOp47
 70
     1
102
RTVSPost2010Prop48
 90
       50
102
RTVSPost2010PropOp48
 70
     1
102
RTVSPost2010Prop49
280
     0
102
RTVSPost2010PropOp49
 70
     1
102
RTVSPost2010Prop50
 90
       50
102
RTVSPost2010PropOp50
 70
     1
102
RTVSPost2010Prop51ColorIndex
 90
      256
102
RTVSPost2010Prop51ColorRGB
 90
-16777216
102
RTVSPost2010PropOp51
 70
     0
102
RTVSPost2010Prop52
140
1.0
102
RTVSPost2010PropOp52
 70
     0
102
RTVSPost2010Prop53
 90
        2
102
RTVSPost2010PropOp53
 70
     1
102
RTVSPost2010Prop54
  1
strokes_ogs.tif
102
RTVSPost2010PropOp54
 70
     1
102
RTVSPost2010Prop55
280
     0
102
RTVSPost2010PropOp55
 70
     1
102
RTVSPost2010Prop56
140
1.0
102
RTVSPost2010PropOp56
 70
     1
102
RTVSPost2010Prop57
140
1.0
102
RTVSPost2010PropOp57
 70
     1
  0
XRECORD
  5
27B
102
{ACAD_REACTORS
330
27A
102
}
330
27A
100
AcDbXrecord
280
     1
102
RTVSPropertyOp0
 70
     1
102
RTVSPropertyOp1
 70
     1
102
RTVSPropertyOp2
 70
     1
102
RTVSPropertyOp3
 70
     1
102
RTVSPropertyOp4
 70
     1
102
RTVSPropertyOp5
 70
     1
102
RTVSPropertyOp6
 70
     1
102
RTVSPropertyOp7
 70
     1
102
RTVSPropertyOp8
 70
     1
102
RTVSPropertyOp9
 70
     1
102
RTVSPropertyOp10
 70
     1
102
RTVSPropertyOp11
 70
     1
102
RTVSPropertyOp12
 70
     1
102
RTVSPropertyOp13
 70
     1
102
RTVSPropertyOp14
 70
     1
102
RTVSPropertyOp15
 70
     1
102
RTVSPropertyOp16
 70
     1
102
RTVSPropertyOp17
 70
     1
102
RTVSPropertyOp18
 70
     1
102
RTVSPropertyOp19
 70
     1
102
RTVSPropertyOp20
 70
     1
102
RTVSPropertyOp21
 70
     1
102
RTVSPropertyOp22
 70
     1
102
RTVSPropertyOp23
 70
     1
102
RTVSPropertyOp24
 70
     1
102
RTVSPropertyOp25
 70
     1
102
RTVSPropertyOp26
 70
     1
102
RTVSPropertyOp27
 70
     1
102
RTVSPropertyOp28
 70
     1
102
RTVSPropertyOp29
 70
     1
102
RTVSPropertyOp30
 70
     1
102
RTVSPropertyOp31
 70
     1
102
RTVSPropertyOp32
 70
     1
102
RTVSPropertyOp33
 70
     1
102
RTVSPropertyOp34
 70
     1
102
RTVSPropertyOp35
 70
     1
102
RTVSPropertyOp36
 70
     1
102
RTVSPropertyOp37
 70
     1
102
RTVSPropertyOp38
 70
     1
102
RTVSPropertyOp39
 70
     1
102
RTVSPropertyOp40
 70
     1
102
RTVSPropertyOp41
 70
     1
102
RTVSPropertyOp42
 70
     1
102
RTVSPropertyOp43
 70
     1
102
RTVSPropertyOp44
 70
     1
102
RTVSPropertyOp45
 70
     1
102
RTVSPropertyOp46
 70
     1
102
RTVSPropertyOp47
 70
     1
102
RTVSPropertyOp48
 70
     1
102
RTVSPropertyOp49
 70
     1
102
RTVSPropertyOp50
 70
     1
102
RTVSPropertyOp51
 70
     0
102
RTVSPropertyOp52
 70
     0
102
RTVSPropertyOp53
 70
     1
102
RTVSPropertyOp54
 70
     1
102
RTVSPropertyOp55
 70
     1
102
RTVSPropertyOp56
 70
     1
102
RTVSPropertyOp57
 70
     1
102
RTVSPost2010Prop28
280
     0
102
RTVSPost2010PropOp28
 70
     1
102
RTVSPost2010Prop29
280
     1
102
RTVSPost2010PropOp29
 70
     1
102
RTVSPost2010Prop30
280
     1
102
RTVSPost2010PropOp30
 70
     1
102
RTVSPost2010Prop31
280
     0
102
RTVSPost2010PropOp31
 70
     1
102
RTVSPost2010Prop32
280
     0
102
RTVSPost2010PropOp32
 70
     1
102
RTVSPost2010Prop33
280
     0
102
RTVSPost2010PropOp33
 70
     1
102
RTVSPost2010Prop34
280
     0
102
RTVSPost2010PropOp34
 70
     1
102
RTVSPost2010Prop35
280
     0
102
RTVSPost2010PropOp35
 70
     1
102
RTVSPost2010Prop36
280
     0
102
RTVSPost2010PropOp36
 70
     1
102
RTVSPost2010Prop37
 90
       50
102
RTVSPost2010PropOp37
 70
     1
102
RTVSPost2010Prop38
140
0.0
102
RTVSPost2010PropOp38
 70
     1
102
RTVSPost2010Prop39
140
1.0
102
RTVSPost2010PropOp39
 70
     1
102
RTVSPost2010Prop40
 90
        0
102
RTVSPost2010PropOp40
 70
     1
102
RTVSPost2010Prop41ColorIndex
 90
       18
102
RTVSPost2010Prop41ColorRGB
 90
        0
102
RTVSPost2010PropOp41
 70
     1
102
RTVSPost2010Prop42
 90
       50
102
RTVSPost2010PropOp42
 70
     1
102
RTVSPost2010Prop43
 90
        3
102
RTVSPost2010PropOp43
 70
     1
102
RTVSPost2010Prop44ColorIndex
 90
        5
102
RTVSPost2010Prop44ColorRGB
 90
      255
102
RTVSPost2010PropOp44
 70
     1
102
RTVSPost2010Prop45
280
     0
102
RTVSPost2010PropOp45
 70
     1
102
RTVSPost2010Prop46
 90
       50
102
RTVSPost2010PropOp46
 70
     1
102
RTVSPost2010Prop47
 90
       50
102
RTVSPost2010PropOp47
 70
     1
102
RTVSPost2010Prop48
 90
       50
102
RTVSPost2010PropOp48
 70
     1
102
RTVSPost2010Prop49
280
     0
102
RTVSPost2010PropOp49
 70
     1
102
RTVSPost2010Prop50
 90
       50
102
RTVSPost2010PropOp50
 70
     1
102
RTVSPost2010Prop51ColorIndex
 90
      256
102
RTVSPost2010Prop51ColorRGB
 90
-16777216
102
RTVSPost2010PropOp51
 70
     0
102
RTVSPost2010Prop52
140
1.0
102
RTVSPost2010PropOp52
 70
     0
102
RTVSPost2010Prop53
 90
        2
102
RTVSPost2010PropOp53
 70
     1
102
RTVSPost2010Prop54
  1
strokes_ogs.tif
102
RTVSPost2010PropOp54
 70
     1
102
RTVSPost2010Prop55
280
     0
102
RTVSPost2010PropOp55
 70
     1
102
RTVSPost2010Prop56
140
1.0
102
RTVSPost2010PropOp56
 70
     1
102
RTVSPost2010Prop57
140
1.0
102
RTVSPost2010PropOp57
 70
     1
  0
XRECORD
  5
275
102
{ACAD_REACTORS
330
274
102
}
330
274
100
AcDbXrecord
280
     1
102
RTVSPropertyOp0
 70
     1
102
RTVSPropertyOp1
 70
     1
102
RTVSPropertyOp2
 70
     1
102
RTVSPropertyOp3
 70
     1
102
RTVSPropertyOp4
 70
     1
102
RTVSPropertyOp5
 70
     1
102
RTVSPropertyOp6
 70
     1
102
RTVSPropertyOp7
 70
     1
102
RTVSPropertyOp8
 70
     1
102
RTVSPropertyOp9
 70
     1
102
RTVSPropertyOp10
 70
     1
102
RTVSPropertyOp11
 70
     1
102
RTVSPropertyOp12
 70
     1
102
RTVSPropertyOp13
 70
     1
102
RTVSPropertyOp14
 70
     1
102
RTVSPropertyOp15
 70
     1
102
RTVSPropertyOp16
 70
     1
102
RTVSPropertyOp17
 70
     1
102
RTVSPropertyOp18
 70
     1
102
RTVSPropertyOp19
 70
     1
102
RTVSPropertyOp20
 70
     1
102
RTVSPropertyOp21
 70
     1
102
RTVSPropertyOp22
 70
     1
102
RTVSPropertyOp23
 70
     1
102
RTVSPropertyOp24
 70
     1
102
RTVSPropertyOp25
 70
     1
102
RTVSPropertyOp26
 70
     1
102
RTVSPropertyOp27
 70
     1
102
RTVSPropertyOp28
 70
     1
102
RTVSPropertyOp29
 70
     1
102
RTVSPropertyOp30
 70
     1
102
RTVSPropertyOp31
 70
     1
102
RTVSPropertyOp32
 70
     1
102
RTVSPropertyOp33
 70
     1
102
RTVSPropertyOp34
 70
     1
102
RTVSPropertyOp35
 70
     1
102
RTVSPropertyOp36
 70
     1
102
RTVSPropertyOp37
 70
     1
102
RTVSPropertyOp38
 70
     1
102
RTVSPropertyOp39
 70
     1
102
RTVSPropertyOp40
 70
     1
102
RTVSPropertyOp41
 70
     1
102
RTVSPropertyOp42
 70
     1
102
RTVSPropertyOp43
 70
     1
102
RTVSPropertyOp44
 70
     1
102
RTVSPropertyOp45
 70
     1
102
RTVSPropertyOp46
 70
     1
102
RTVSPropertyOp47
 70
     1
102
RTVSPropertyOp48
 70
     1
102
RTVSPropertyOp49
 70
     1
102
RTVSPropertyOp50
 70
     1
102
RTVSPropertyOp51
 70
     0
102
RTVSPropertyOp52
 70
     0
102
RTVSPropertyOp53
 70
     1
102
RTVSPropertyOp54
 70
     1
102
RTVSPropertyOp55
 70
     1
102
RTVSPropertyOp56
 70
     1
102
RTVSPropertyOp57
 70
     1
102
RTVSPost2010Prop28
280
     0
102
RTVSPost2010PropOp28
 70
     1
102
RTVSPost2010Prop29
280
     1
102
RTVSPost2010PropOp29
 70
     1
102
RTVSPost2010Prop30
280
     1
102
RTVSPost2010PropOp30
 70
     1
102
RTVSPost2010Prop31
280
     0
102
RTVSPost2010PropOp31
 70
     1
102
RTVSPost2010Prop32
280
     0
102
RTVSPost2010PropOp32
 70
     1
102
RTVSPost2010Prop33
280
     0
102
RTVSPost2010PropOp33
 70
     1
102
RTVSPost2010Prop34
280
     0
102
RTVSPost2010PropOp34
 70
     1
102
RTVSPost2010Prop35
280
     0
102
RTVSPost2010PropOp35
 70
     1
102
RTVSPost2010Prop36
280
     0
102
RTVSPost2010PropOp36
 70
     1
102
RTVSPost2010Prop37
 90
       50
102
RTVSPost2010PropOp37
 70
     1
102
RTVSPost2010Prop38
140
0.0
102
RTVSPost2010PropOp38
 70
     1
102
RTVSPost2010Prop39
140
1.0
102
RTVSPost2010PropOp39
 70
     1
102
RTVSPost2010Prop40
 90
        0
102
RTVSPost2010PropOp40
 70
     1
102
RTVSPost2010Prop41ColorIndex
 90
       18
102
RTVSPost2010Prop41ColorRGB
 90
        0
102
RTVSPost2010PropOp41
 70
     1
102
RTVSPost2010Prop42
 90
       50
102
RTVSPost2010PropOp42
 70
     1
102
RTVSPost2010Prop43
 90
        3
102
RTVSPost2010PropOp43
 70
     1
102
RTVSPost2010Prop44ColorIndex
 90
        5
102
RTVSPost2010Prop44ColorRGB
 90
      255
102
RTVSPost2010PropOp44
 70
     1
102
RTVSPost2010Prop45
280
     0
102
RTVSPost2010PropOp45
 70
     1
102
RTVSPost2010Prop46
 90
       50
102
RTVSPost2010PropOp46
 70
     1
102
RTVSPost2010Prop47
 90
       50
102
RTVSPost2010PropOp47
 70
     1
102
RTVSPost2010Prop48
 90
       50
102
RTVSPost2010PropOp48
 70
     1
102
RTVSPost2010Prop49
280
     0
102
RTVSPost2010PropOp49
 70
     1
102
RTVSPost2010Prop50
 90
       50
102
RTVSPost2010PropOp50
 70
     1
102
RTVSPost2010Prop51ColorIndex
 90
      256
102
RTVSPost2010Prop51ColorRGB
 90
-16777216
102
RTVSPost2010PropOp51
 70
     0
102
RTVSPost2010Prop52
140
1.0
102
RTVSPost2010PropOp52
 70
     0
102
RTVSPost2010Prop53
 90
        2
102
RTVSPost2010PropOp53
 70
     1
102
RTVSPost2010Prop54
  1
strokes_ogs.tif
102
RTVSPost2010PropOp54
 70
     1
102
RTVSPost2010Prop55
280
     0
102
RTVSPost2010PropOp55
 70
     1
102
RTVSPost2010Prop56
140
1.0
102
RTVSPost2010PropOp56
 70
     1
102
RTVSPost2010Prop57
140
1.0
102
RTVSPost2010PropOp57
 70
     1
  0
XRECORD
  5
277
102
{ACAD_REACTORS
330
276
102
}
330
276
100
AcDbXrecord
280
     1
102
RTVSPropertyOp0
 70
     1
102
RTVSPropertyOp1
 70
     1
102
RTVSPropertyOp2
 70
     1
102
RTVSPropertyOp3
 70
     1
102
RTVSPropertyOp4
 70
     1
102
RTVSPropertyOp5
 70
     1
102
RTVSPropertyOp6
 70
     1
102
RTVSPropertyOp7
 70
     1
102
RTVSPropertyOp8
 70
     1
102
RTVSPropertyOp9
 70
     1
102
RTVSPropertyOp10
 70
     1
102
RTVSPropertyOp11
 70
     1
102
RTVSPropertyOp12
 70
     1
102
RTVSPropertyOp13
 70
     1
102
RTVSPropertyOp14
 70
     1
102
RTVSPropertyOp15
 70
     1
102
RTVSPropertyOp16
 70
     1
102
RTVSPropertyOp17
 70
     1
102
RTVSPropertyOp18
 70
     1
102
RTVSPropertyOp19
 70
     1
102
RTVSPropertyOp20
 70
     1
102
RTVSPropertyOp21
 70
     1
102
RTVSPropertyOp22
 70
     1
102
RTVSPropertyOp23
 70
     1
102
RTVSPropertyOp24
 70
     1
102
RTVSPropertyOp25
 70
     1
102
RTVSPropertyOp26
 70
     1
102
RTVSPropertyOp27
 70
     1
102
RTVSPropertyOp28
 70
     1
102
RTVSPropertyOp29
 70
     1
102
RTVSPropertyOp30
 70
     1
102
RTVSPropertyOp31
 70
     1
102
RTVSPropertyOp32
 70
     1
102
RTVSPropertyOp33
 70
     1
102
RTVSPropertyOp34
 70
     1
102
RTVSPropertyOp35
 70
     1
102
RTVSPropertyOp36
 70
     1
102
RTVSPropertyOp37
 70
     1
102
RTVSPropertyOp38
 70
     1
102
RTVSPropertyOp39
 70
     1
102
RTVSPropertyOp40
 70
     1
102
RTVSPropertyOp41
 70
     1
102
RTVSPropertyOp42
 70
     1
102
RTVSPropertyOp43
 70
     1
102
RTVSPropertyOp44
 70
     1
102
RTVSPropertyOp45
 70
     1
102
RTVSPropertyOp46
 70
     1
102
RTVSPropertyOp47
 70
     1
102
RTVSPropertyOp48
 70
     1
102
RTVSPropertyOp49
 70
     1
102
RTVSPropertyOp50
 70
     1
102
RTVSPropertyOp51
 70
     0
102
RTVSPropertyOp52
 70
     0
102
RTVSPropertyOp53
 70
     1
102
RTVSPropertyOp54
 70
     1
102
RTVSPropertyOp55
 70
     1
102
RTVSPropertyOp56
 70
     1
102
RTVSPropertyOp57
 70
     1
102
RTVSPost2010Prop28
280
     0
102
RTVSPost2010PropOp28
 70
     1
102
RTVSPost2010Prop29
280
     1
102
RTVSPost2010PropOp29
 70
     1
102
RTVSPost2010Prop30
280
     1
102
RTVSPost2010PropOp30
 70
     1
102
RTVSPost2010Prop31
280
     0
102
RTVSPost2010PropOp31
 70
     1
102
RTVSPost2010Prop32
280
     0
102
RTVSPost2010PropOp32
 70
     1
102
RTVSPost2010Prop33
280
     0
102
RTVSPost2010PropOp33
 70
     1
102
RTVSPost2010Prop34
280
     0
102
RTVSPost2010PropOp34
 70
     1
102
RTVSPost2010Prop35
280
     0
102
RTVSPost2010PropOp35
 70
     1
102
RTVSPost2010Prop36
280
     0
102
RTVSPost2010PropOp36
 70
     1
102
RTVSPost2010Prop37
 90
       50
102
RTVSPost2010PropOp37
 70
     1
102
RTVSPost2010Prop38
140
0.0
102
RTVSPost2010PropOp38
 70
     1
102
RTVSPost2010Prop39
140
1.0
102
RTVSPost2010PropOp39
 70
     1
102
RTVSPost2010Prop40
 90
        0
102
RTVSPost2010PropOp40
 70
     1
102
RTVSPost2010Prop41ColorIndex
 90
       18
102
RTVSPost2010Prop41ColorRGB
 90
        0
102
RTVSPost2010PropOp41
 70
     1
102
RTVSPost2010Prop42
 90
       50
102
RTVSPost2010PropOp42
 70
     1
102
RTVSPost2010Prop43
 90
        3
102
RTVSPost2010PropOp43
 70
     1
102
RTVSPost2010Prop44ColorIndex
 90
        5
102
RTVSPost2010Prop44ColorRGB
 90
      255
102
RTVSPost2010PropOp44
 70
     1
102
RTVSPost2010Prop45
280
     0
102
RTVSPost2010PropOp45
 70
     1
102
RTVSPost2010Prop46
 90
       50
102
RTVSPost2010PropOp46
 70
     1
102
RTVSPost2010Prop47
 90
       50
102
RTVSPost2010PropOp47
 70
     1
102
RTVSPost2010Prop48
 90
       50
102
RTVSPost2010PropOp48
 70
     1
102
RTVSPost2010Prop49
280
     0
102
RTVSPost2010PropOp49
 70
     1
102
RTVSPost2010Prop50
 90
       50
102
RTVSPost2010PropOp50
 70
     1
102
RTVSPost2010Prop51ColorIndex
 90
      256
102
RTVSPost2010Prop51ColorRGB
 90
-16777216
102
RTVSPost2010PropOp51
 70
     0
102
RTVSPost2010Prop52
140
1.0
102
RTVSPost2010PropOp52
 70
     0
102
RTVSPost2010Prop53
 90
        2
102
RTVSPost2010PropOp53
 70
     1
102
RTVSPost2010Prop54
  1
strokes_ogs.tif
102
RTVSPost2010PropOp54
 70
     1
102
RTVSPost2010Prop55
280
     0
102
RTVSPost2010PropOp55
 70
     1
102
RTVSPost2010Prop56
140
1.0
102
RTVSPost2010PropOp56
 70
     1
102
RTVSPost2010Prop57
140
1.0
102
RTVSPost2010PropOp57
 70
     1
  0
XRECORD
  5
267
102
{ACAD_REACTORS
330
266
102
}
330
266
100
AcDbXrecord
280
     1
102
RTVSPropertyOp0
 70
     1
102
RTVSPropertyOp1
 70
     1
102
RTVSPropertyOp2
 70
     1
102
RTVSPropertyOp3
 70
     1
102
RTVSPropertyOp4
 70
     1
102
RTVSPropertyOp5
 70
     1
102
RTVSPropertyOp6
 70
     1
102
RTVSPropertyOp7
 70
     1
102
RTVSPropertyOp8
 70
     1
102
RTVSPropertyOp9
 70
     1
102
RTVSPropertyOp10
 70
     1
102
RTVSPropertyOp11
 70
     1
102
RTVSPropertyOp12
 70
     1
102
RTVSPropertyOp13
 70
     1
102
RTVSPropertyOp14
 70
     1
102
RTVSPropertyOp15
 70
     1
102
RTVSPropertyOp16
 70
     1
102
RTVSPropertyOp17
 70
     1
102
RTVSPropertyOp18
 70
     1
102
RTVSPropertyOp19
 70
     1
102
RTVSPropertyOp20
 70
     1
102
RTVSPropertyOp21
 70
     1
102
RTVSPropertyOp22
 70
     1
102
RTVSPropertyOp23
 70
     1
102
RTVSPropertyOp24
 70
     1
102
RTVSPropertyOp25
 70
     1
102
RTVSPropertyOp26
 70
     1
102
RTVSPropertyOp27
 70
     1
102
RTVSPropertyOp28
 70
     1
102
RTVSPropertyOp29
 70
     1
102
RTVSPropertyOp30
 70
     1
102
RTVSPropertyOp31
 70
     1
102
RTVSPropertyOp32
 70
     1
102
RTVSPropertyOp33
 70
     1
102
RTVSPropertyOp34
 70
     1
102
RTVSPropertyOp35
 70
     1
102
RTVSPropertyOp36
 70
     1
102
RTVSPropertyOp37
 70
     1
102
RTVSPropertyOp38
 70
     1
102
RTVSPropertyOp39
 70
     1
102
RTVSPropertyOp40
 70
     1
102
RTVSPropertyOp41
 70
     1
102
RTVSPropertyOp42
 70
     1
102
RTVSPropertyOp43
 70
     1
102
RTVSPropertyOp44
 70
     1
102
RTVSPropertyOp45
 70
     1
102
RTVSPropertyOp46
 70
     1
102
RTVSPropertyOp47
 70
     1
102
RTVSPropertyOp48
 70
     1
102
RTVSPropertyOp49
 70
     1
102
RTVSPropertyOp50
 70
     1
102
RTVSPropertyOp51
 70
     0
102
RTVSPropertyOp52
 70
     0
102
RTVSPropertyOp53
 70
     1
102
RTVSPropertyOp54
 70
     1
102
RTVSPropertyOp55
 70
     1
102
RTVSPropertyOp56
 70
     1
102
RTVSPropertyOp57
 70
     1
102
RTVSPost2010Prop28
280
     0
102
RTVSPost2010PropOp28
 70
     1
102
RTVSPost2010Prop29
280
     1
102
RTVSPost2010PropOp29
 70
     1
102
RTVSPost2010Prop30
280
     1
102
RTVSPost2010PropOp30
 70
     1
102
RTVSPost2010Prop31
280
     0
102
RTVSPost2010PropOp31
 70
     1
102
RTVSPost2010Prop32
280
     0
102
RTVSPost2010PropOp32
 70
     1
102
RTVSPost2010Prop33
280
     0
102
RTVSPost2010PropOp33
 70
     1
102
RTVSPost2010Prop34
280
     0
102
RTVSPost2010PropOp34
 70
     1
102
RTVSPost2010Prop35
280
     0
102
RTVSPost2010PropOp35
 70
     1
102
RTVSPost2010Prop36
280
     0
102
RTVSPost2010PropOp36
 70
     1
102
RTVSPost2010Prop37
 90
       50
102
RTVSPost2010PropOp37
 70
     1
102
RTVSPost2010Prop38
140
0.0
102
RTVSPost2010PropOp38
 70
     1
102
RTVSPost2010Prop39
140
1.0
102
RTVSPost2010PropOp39
 70
     1
102
RTVSPost2010Prop40
 90
        0
102
RTVSPost2010PropOp40
 70
     1
102
RTVSPost2010Prop41ColorIndex
 90
       18
102
RTVSPost2010Prop41ColorRGB
 90
        0
102
RTVSPost2010PropOp41
 70
     1
102
RTVSPost2010Prop42
 90
       50
102
RTVSPost2010PropOp42
 70
     1
102
RTVSPost2010Prop43
 90
        3
102
RTVSPost2010PropOp43
 70
     1
102
RTVSPost2010Prop44ColorIndex
 90
        5
102
RTVSPost2010Prop44ColorRGB
 90
      255
102
RTVSPost2010PropOp44
 70
     1
102
RTVSPost2010Prop45
280
     0
102
RTVSPost2010PropOp45
 70
     1
102
RTVSPost2010Prop46
 90
       50
102
RTVSPost2010PropOp46
 70
     1
102
RTVSPost2010Prop47
 90
       50
102
RTVSPost2010PropOp47
 70
     1
102
RTVSPost2010Prop48
 90
       50
102
RTVSPost2010PropOp48
 70
     1
102
RTVSPost2010Prop49
280
     0
102
RTVSPost2010PropOp49
 70
     1
102
RTVSPost2010Prop50
 90
       50
102
RTVSPost2010PropOp50
 70
     1
102
RTVSPost2010Prop51ColorIndex
 90
      256
102
RTVSPost2010Prop51ColorRGB
 90
-16777216
102
RTVSPost2010PropOp51
 70
     0
102
RTVSPost2010Prop52
140
1.0
102
RTVSPost2010PropOp52
 70
     0
102
RTVSPost2010Prop53
 90
        2
102
RTVSPost2010PropOp53
 70
     1
102
RTVSPost2010Prop54
  1
strokes_ogs.tif
102
RTVSPost2010PropOp54
 70
     1
102
RTVSPost2010Prop55
280
     0
102
RTVSPost2010PropOp55
 70
     1
102
RTVSPost2010Prop56
140
1.0
102
RTVSPost2010PropOp56
 70
     1
102
RTVSPost2010Prop57
140
1.0
102
RTVSPost2010PropOp57
 70
     1
  0
XRECORD
  5
259
102
{ACAD_REACTORS
330
258
102
}
330
258
100
AcDbXrecord
280
     1
102
RTVSPropertyOp0
 70
     1
102
RTVSPropertyOp1
 70
     1
102
RTVSPropertyOp2
 70
     1
102
RTVSPropertyOp3
 70
     1
102
RTVSPropertyOp4
 70
     1
102
RTVSPropertyOp5
 70
     1
102
RTVSPropertyOp6
 70
     1
102
RTVSPropertyOp7
 70
     1
102
RTVSPropertyOp8
 70
     1
102
RTVSPropertyOp9
 70
     1
102
RTVSPropertyOp10
 70
     1
102
RTVSPropertyOp11
 70
     1
102
RTVSPropertyOp12
 70
     1
102
RTVSPropertyOp13
 70
     1
102
RTVSPropertyOp14
 70
     1
102
RTVSPropertyOp15
 70
     1
102
RTVSPropertyOp16
 70
     1
102
RTVSPropertyOp17
 70
     1
102
RTVSPropertyOp18
 70
     1
102
RTVSPropertyOp19
 70
     1
102
RTVSPropertyOp20
 70
     1
102
RTVSPropertyOp21
 70
     1
102
RTVSPropertyOp22
 70
     1
102
RTVSPropertyOp23
 70
     1
102
RTVSPropertyOp24
 70
     1
102
RTVSPropertyOp25
 70
     1
102
RTVSPropertyOp26
 70
     1
102
RTVSPropertyOp27
 70
     1
102
RTVSPropertyOp28
 70
     1
102
RTVSPropertyOp29
 70
     1
102
RTVSPropertyOp30
 70
     1
102
RTVSPropertyOp31
 70
     1
102
RTVSPropertyOp32
 70
     1
102
RTVSPropertyOp33
 70
     1
102
RTVSPropertyOp34
 70
     1
102
RTVSPropertyOp35
 70
     1
102
RTVSPropertyOp36
 70
     1
102
RTVSPropertyOp37
 70
     1
102
RTVSPropertyOp38
 70
     1
102
RTVSPropertyOp39
 70
     1
102
RTVSPropertyOp40
 70
     1
102
RTVSPropertyOp41
 70
     1
102
RTVSPropertyOp42
 70
     1
102
RTVSPropertyOp43
 70
     1
102
RTVSPropertyOp44
 70
     1
102
RTVSPropertyOp45
 70
     1
102
RTVSPropertyOp46
 70
     1
102
RTVSPropertyOp47
 70
     1
102
RTVSPropertyOp48
 70
     1
102
RTVSPropertyOp49
 70
     1
102
RTVSPropertyOp50
 70
     1
102
RTVSPropertyOp51
 70
     0
102
RTVSPropertyOp52
 70
     0
102
RTVSPropertyOp53
 70
     1
102
RTVSPropertyOp54
 70
     1
102
RTVSPropertyOp55
 70
     1
102
RTVSPropertyOp56
 70
     1
102
RTVSPropertyOp57
 70
     1
102
RTVSPost2010Prop28
280
     0
102
RTVSPost2010PropOp28
 70
     1
102
RTVSPost2010Prop29
280
     1
102
RTVSPost2010PropOp29
 70
     1
102
RTVSPost2010Prop30
280
     1
102
RTVSPost2010PropOp30
 70
     1
102
RTVSPost2010Prop31
280
     0
102
RTVSPost2010PropOp31
 70
     1
102
RTVSPost2010Prop32
280
     0
102
RTVSPost2010PropOp32
 70
     1
102
RTVSPost2010Prop33
280
     0
102
RTVSPost2010PropOp33
 70
     1
102
RTVSPost2010Prop34
280
     0
102
RTVSPost2010PropOp34
 70
     1
102
RTVSPost2010Prop35
280
     0
102
RTVSPost2010PropOp35
 70
     1
102
RTVSPost2010Prop36
280
     0
102
RTVSPost2010PropOp36
 70
     1
102
RTVSPost2010Prop37
 90
       50
102
RTVSPost2010PropOp37
 70
     1
102
RTVSPost2010Prop38
140
0.0
102
RTVSPost2010PropOp38
 70
     1
102
RTVSPost2010Prop39
140
1.0
102
RTVSPost2010PropOp39
 70
     1
102
RTVSPost2010Prop40
 90
        0
102
RTVSPost2010PropOp40
 70
     1
102
RTVSPost2010Prop41ColorIndex
 90
       18
102
RTVSPost2010Prop41ColorRGB
 90
        0
102
RTVSPost2010PropOp41
 70
     1
102
RTVSPost2010Prop42
 90
       50
102
RTVSPost2010PropOp42
 70
     1
102
RTVSPost2010Prop43
 90
        3
102
RTVSPost2010PropOp43
 70
     1
102
RTVSPost2010Prop44ColorIndex
 90
        5
102
RTVSPost2010Prop44ColorRGB
 90
      255
102
RTVSPost2010PropOp44
 70
     1
102
RTVSPost2010Prop45
280
     0
102
RTVSPost2010PropOp45
 70
     1
102
RTVSPost2010Prop46
 90
       50
102
RTVSPost2010PropOp46
 70
     1
102
RTVSPost2010Prop47
 90
       50
102
RTVSPost2010PropOp47
 70
     1
102
RTVSPost2010Prop48
 90
       50
102
RTVSPost2010PropOp48
 70
     1
102
RTVSPost2010Prop49
280
     0
102
RTVSPost2010PropOp49
 70
     1
102
RTVSPost2010Prop50
 90
       50
102
RTVSPost2010PropOp50
 70
     1
102
RTVSPost2010Prop51ColorIndex
 90
      256
102
RTVSPost2010Prop51ColorRGB
 90
-16777216
102
RTVSPost2010PropOp51
 70
     0
102
RTVSPost2010Prop52
140
1.0
102
RTVSPost2010PropOp52
 70
     0
102
RTVSPost2010Prop53
 90
        2
102
RTVSPost2010PropOp53
 70
     1
102
RTVSPost2010Prop54
  1
strokes_ogs.tif
102
RTVSPost2010PropOp54
 70
     1
102
RTVSPost2010Prop55
280
     0
102
RTVSPost2010PropOp55
 70
     1
102
RTVSPost2010Prop56
140
1.0
102
RTVSPost2010PropOp56
 70
     1
102
RTVSPost2010Prop57
140
1.0
102
RTVSPost2010PropOp57
 70
     1
  0
XRECORD
  5
279
102
{ACAD_REACTORS
330
278
102
}
330
278
100
AcDbXrecord
280
     1
102
RTVSPropertyOp0
 70
     1
102
RTVSPropertyOp1
 70
     1
102
RTVSPropertyOp2
 70
     1
102
RTVSPropertyOp3
 70
     1
102
RTVSPropertyOp4
 70
     1
102
RTVSPropertyOp5
 70
     1
102
RTVSPropertyOp6
 70
     1
102
RTVSPropertyOp7
 70
     1
102
RTVSPropertyOp8
 70
     1
102
RTVSPropertyOp9
 70
     1
102
RTVSPropertyOp10
 70
     1
102
RTVSPropertyOp11
 70
     1
102
RTVSPropertyOp12
 70
     1
102
RTVSPropertyOp13
 70
     1
102
RTVSPropertyOp14
 70
     1
102
RTVSPropertyOp15
 70
     1
102
RTVSPropertyOp16
 70
     1
102
RTVSPropertyOp17
 70
     1
102
RTVSPropertyOp18
 70
     1
102
RTVSPropertyOp19
 70
     1
102
RTVSPropertyOp20
 70
     1
102
RTVSPropertyOp21
 70
     1
102
RTVSPropertyOp22
 70
     1
102
RTVSPropertyOp23
 70
     1
102
RTVSPropertyOp24
 70
     1
102
RTVSPropertyOp25
 70
     1
102
RTVSPropertyOp26
 70
     1
102
RTVSPropertyOp27
 70
     1
102
RTVSPropertyOp28
 70
     1
102
RTVSPropertyOp29
 70
     1
102
RTVSPropertyOp30
 70
     1
102
RTVSPropertyOp31
 70
     1
102
RTVSPropertyOp32
 70
     1
102
RTVSPropertyOp33
 70
     1
102
RTVSPropertyOp34
 70
     1
102
RTVSPropertyOp35
 70
     1
102
RTVSPropertyOp36
 70
     1
102
RTVSPropertyOp37
 70
     1
102
RTVSPropertyOp38
 70
     1
102
RTVSPropertyOp39
 70
     1
102
RTVSPropertyOp40
 70
     1
102
RTVSPropertyOp41
 70
     1
102
RTVSPropertyOp42
 70
     1
102
RTVSPropertyOp43
 70
     1
102
RTVSPropertyOp44
 70
     1
102
RTVSPropertyOp45
 70
     1
102
RTVSPropertyOp46
 70
     1
102
RTVSPropertyOp47
 70
     1
102
RTVSPropertyOp48
 70
     1
102
RTVSPropertyOp49
 70
     1
102
RTVSPropertyOp50
 70
     1
102
RTVSPropertyOp51
 70
     0
102
RTVSPropertyOp52
 70
     0
102
RTVSPropertyOp53
 70
     1
102
RTVSPropertyOp54
 70
     1
102
RTVSPropertyOp55
 70
     1
102
RTVSPropertyOp56
 70
     1
102
RTVSPropertyOp57
 70
     1
102
RTVSPost2010Prop28
280
     0
102
RTVSPost2010PropOp28
 70
     1
102
RTVSPost2010Prop29
280
     1
102
RTVSPost2010PropOp29
 70
     1
102
RTVSPost2010Prop30
280
     1
102
RTVSPost2010PropOp30
 70
     1
102
RTVSPost2010Prop31
280
     0
102
RTVSPost2010PropOp31
 70
     1
102
RTVSPost2010Prop32
280
     0
102
RTVSPost2010PropOp32
 70
     1
102
RTVSPost2010Prop33
280
     0
102
RTVSPost2010PropOp33
 70
     1
102
RTVSPost2010Prop34
280
     0
102
RTVSPost2010PropOp34
 70
     1
102
RTVSPost2010Prop35
280
     0
102
RTVSPost2010PropOp35
 70
     1
102
RTVSPost2010Prop36
280
     0
102
RTVSPost2010PropOp36
 70
     1
102
RTVSPost2010Prop37
 90
       50
102
RTVSPost2010PropOp37
 70
     1
102
RTVSPost2010Prop38
140
0.0
102
RTVSPost2010PropOp38
 70
     1
102
RTVSPost2010Prop39
140
1.0
102
RTVSPost2010PropOp39
 70
     1
102
RTVSPost2010Prop40
 90
        0
102
RTVSPost2010PropOp40
 70
     1
102
RTVSPost2010Prop41ColorIndex
 90
       18
102
RTVSPost2010Prop41ColorRGB
 90
        0
102
RTVSPost2010PropOp41
 70
     1
102
RTVSPost2010Prop42
 90
       50
102
RTVSPost2010PropOp42
 70
     1
102
RTVSPost2010Prop43
 90
        3
102
RTVSPost2010PropOp43
 70
     1
102
RTVSPost2010Prop44ColorIndex
 90
        5
102
RTVSPost2010Prop44ColorRGB
 90
      255
102
RTVSPost2010PropOp44
 70
     1
102
RTVSPost2010Prop45
280
     0
102
RTVSPost2010PropOp45
 70
     1
102
RTVSPost2010Prop46
 90
       50
102
RTVSPost2010PropOp46
 70
     1
102
RTVSPost2010Prop47
 90
       50
102
RTVSPost2010PropOp47
 70
     1
102
RTVSPost2010Prop48
 90
       50
102
RTVSPost2010PropOp48
 70
     1
102
RTVSPost2010Prop49
280
     0
102
RTVSPost2010PropOp49
 70
     1
102
RTVSPost2010Prop50
 90
       50
102
RTVSPost2010PropOp50
 70
     1
102
RTVSPost2010Prop51ColorIndex
 90
      256
102
RTVSPost2010Prop51ColorRGB
 90
-16777216
102
RTVSPost2010PropOp51
 70
     0
102
RTVSPost2010Prop52
140
1.0
102
RTVSPost2010PropOp52
 70
     0
102
RTVSPost2010Prop53
 90
        2
102
RTVSPost2010PropOp53
 70
     1
102
RTVSPost2010Prop54
  1
strokes_ogs.tif
102
RTVSPost2010PropOp54
 70
     1
102
RTVSPost2010Prop55
280
     0
102
RTVSPost2010PropOp55
 70
     1
102
RTVSPost2010Prop56
140
1.0
102
RTVSPost2010PropOp56
 70
     1
102
RTVSPost2010Prop57
140
1.0
102
RTVSPost2010PropOp57
 70
     1
  0
ENDSEC
  0
EOF
