  0
SECTION
  2
HEADER
  9
$ACADVER
  1
AC1021
  9
$ACADMAINTVER
 70
    25
  9
$DWGCODEPAGE
  3
ANSI_1252
  9
$LASTSAVEDBY
  1
tomba
  9
$INSBASE
 10
0.0
 20
0.0
 30
0.0
  9
$EXTMIN
 10
-30.00000000000001
 20
-30.00000000000005
 30
-0.0000021735124003
  9
$EXTMAX
 10
30.00000000000002
 20
30.00000000000002
 30
372.9999978264876
  9
$LIMMIN
 10
0.0
 20
0.0
  9
$LIMMAX
 10
12.0
 20
9.0
  9
$ORTHOMODE
 70
     0
  9
$REGENMODE
 70
     1
  9
$FILLMODE
 70
     1
  9
$QTEXTMODE
 70
     0
  9
$MIRRTEXT
 70
     1
  9
$LTSCALE
 40
1.0
  9
$ATTMODE
 70
     1
  9
$TEXTSIZE
 40
0.2
  9
$TRACEWID
 40
0.05
  9
$TEXTSTYLE
  7
Standard
  9
$CLAYER
  8
Livello 01
  9
$CELTYPE
  6
ByLayer
  9
$CECOLOR
 62
   256
  9
$CELTSCALE
 40
1.0
  9
$DISPSILH
 70
     0
  9
$DIMSCALE
 40
1.0
  9
$DIMASZ
 40
0.18
  9
$DIMEXO
 40
0.0625
  9
$DIMDLI
 40
0.38
  9
$DIMRND
 40
0.0
  9
$DIMDLE
 40
0.0
  9
$DIMEXE
 40
0.18
  9
$DIMTP
 40
0.0
  9
$DIMTM
 40
0.0
  9
$DIMTXT
 40
0.18
  9
$DIMCEN
 40
0.09
  9
$DIMTSZ
 40
0.0
  9
$DIMTOL
 70
     0
  9
$DIMLIM
 70
     0
  9
$DIMTIH
 70
     1
  9
$DIMTOH
 70
     1
  9
$DIMSE1
 70
     0
  9
$DIMSE2
 70
     0
  9
$DIMTAD
 70
     0
  9
$DIMZIN
 70
     0
  9
$DIMBLK
  1

  9
$DIMASO
 70
     1
  9
$DIMSHO
 70
     1
  9
$DIMPOST
  1

  9
$DIMAPOST
  1

  9
$DIMALT
 70
     0
  9
$DIMALTD
 70
     2
  9
$DIMALTF
 40
25.4
  9
$DIMLFAC
 40
1.0
  9
$DIMTOFL
 70
     0
  9
$DIMTVP
 40
0.0
  9
$DIMTIX
 70
     0
  9
$DIMSOXD
 70
     0
  9
$DIMSAH
 70
     0
  9
$DIMBLK1
  1

  9
$DIMBLK2
  1

  9
$DIMSTYLE
  2
STANDARD_ACAD
  9
$DIMCLRD
 70
     0
  9
$DIMCLRE
 70
     0
  9
$DIMCLRT
 70
     0
  9
$DIMTFAC
 40
1.0
  9
$DIMGAP
 40
0.09
  9
$DIMJUST
 70
     0
  9
$DIMSD1
 70
     0
  9
$DIMSD2
 70
     0
  9
$DIMTOLJ
 70
     1
  9
$DIMTZIN
 70
     0
  9
$DIMALTZ
 70
     0
  9
$DIMALTTZ
 70
     0
  9
$DIMUPT
 70
     0
  9
$DIMDEC
 70
     4
  9
$DIMTDEC
 70
     4
  9
$DIMALTU
 70
     2
  9
$DIMALTTD
 70
     2
  9
$DIMTXSTY
  7
Standard
  9
$DIMAUNIT
 70
     0
  9
$DIMADEC
 70
     0
  9
$DIMALTRND
 40
0.0
  9
$DIMAZIN
 70
     0
  9
$DIMDSEP
 70
    46
  9
$DIMATFIT
 70
     3
  9
$DIMFRAC
 70
     0
  9
$DIMLDRBLK
  1

  9
$DIMLUNIT
 70
     2
  9
$DIMLWD
 70
    -2
  9
$DIMLWE
 70
    -2
  9
$DIMTMOVE
 70
     2
  9
$DIMFXL
 40
1.0
  9
$DIMFXLON
 70
     0
  9
$DIMJOGANG
 40
0.7853981633974483
  9
$DIMTFILL
 70
     0
  9
$DIMTFILLCLR
 70
     0
  9
$DIMARCSYM
 70
     0
  9
$DIMLTYPE
  6

  9
$DIMLTEX1
  6

  9
$DIMLTEX2
  6

  9
$LUNITS
 70
     2
  9
$LUPREC
 70
     3
  9
$SKETCHINC
 40
0.1
  9
$FILLETRAD
 40
0.0
  9
$AUNITS
 70
     0
  9
$AUPREC
 70
     0
  9
$MENU
  1
.
  9
$ELEVATION
 40
0.0
  9
$PELEVATION
 40
0.0
  9
$THICKNESS
 40
0.0
  9
$LIMCHECK
 70
     0
  9
$CHAMFERA
 40
0.0
  9
$CHAMFERB
 40
0.0
  9
$CHAMFERC
 40
0.0
  9
$CHAMFERD
 40
0.0
  9
$SKPOLY
 70
     0
  9
$TDCREATE
 40
2460361.479454514
  9
$TDUCREATE
 40
2460361.437787847
  9
$TDUPDATE
 40
2460361.479497651
  9
$TDUUPDATE
 40
2460361.437830984
  9
$TDINDWG
 40
0.0000000116
  9
$TDUSRTIMER
 40
0.0000000116
  9
$USRTIMER
 70
     1
  9
$ANGBASE
 50
0.0
  9
$ANGDIR
 70
     0
  9
$PDMODE
 70
     0
  9
$PDSIZE
 40
0.0
  9
$PLINEWID
 40
0.0
  9
$SPLFRAME
 70
     0
  9
$SPLINETYPE
 70
     6
  9
$SPLINESEGS
 70
     8
  9
$HANDSEED
  5
2D7
  9
$SURFTAB1
 70
     6
  9
$SURFTAB2
 70
     6
  9
$SURFTYPE
 70
     6
  9
$SURFU
 70
     6
  9
$SURFV
 70
     6
  9
$UCSBASE
  2

  9
$UCSNAME
  2

  9
$UCSORG
 10
0.0
 20
0.0
 30
0.0
  9
$UCSXDIR
 10
1.0
 20
0.0
 30
0.0
  9
$UCSYDIR
 10
0.0
 20
1.0
 30
0.0
  9
$UCSORTHOREF
  2

  9
$UCSORTHOVIEW
 70
     0
  9
$UCSORGTOP
 10
0.0
 20
0.0
 30
0.0
  9
$UCSORGBOTTOM
 10
0.0
 20
0.0
 30
0.0
  9
$UCSORGLEFT
 10
0.0
 20
0.0
 30
0.0
  9
$UCSORGRIGHT
 10
0.0
 20
0.0
 30
0.0
  9
$UCSORGFRONT
 10
0.0
 20
0.0
 30
0.0
  9
$UCSORGBACK
 10
0.0
 20
0.0
 30
0.0
  9
$PUCSBASE
  2

  9
$PUCSNAME
  2

  9
$PUCSORG
 10
0.0
 20
0.0
 30
0.0
  9
$PUCSXDIR
 10
1.0
 20
0.0
 30
0.0
  9
$PUCSYDIR
 10
0.0
 20
1.0
 30
0.0
  9
$PUCSORTHOREF
  2

  9
$PUCSORTHOVIEW
 70
     0
  9
$PUCSORGTOP
 10
0.0
 20
0.0
 30
0.0
  9
$PUCSORGBOTTOM
 10
0.0
 20
0.0
 30
0.0
  9
$PUCSORGLEFT
 10
0.0
 20
0.0
 30
0.0
  9
$PUCSORGRIGHT
 10
0.0
 20
0.0
 30
0.0
  9
$PUCSORGFRONT
 10
0.0
 20
0.0
 30
0.0
  9
$PUCSORGBACK
 10
0.0
 20
0.0
 30
0.0
  9
$USERI1
 70
     0
  9
$USERI2
 70
     0
  9
$USERI3
 70
     0
  9
$USERI4
 70
     0
  9
$USERI5
 70
     0
  9
$USERR1
 40
0.0
  9
$USERR2
 40
0.0
  9
$USERR3
 40
0.0
  9
$USERR4
 40
0.0
  9
$USERR5
 40
0.0
  9
$WORLDVIEW
 70
     1
  9
$SHADEDGE
 70
     3
  9
$SHADEDIF
 70
    70
  9
$TILEMODE
 70
     1
  9
$MAXACTVP
 70
    64
  9
$PINSBASE
 10
0.0
 20
0.0
 30
0.0
  9
$PLIMCHECK
 70
     0
  9
$PEXTMIN
 10
1.000000000000000E+20
 20
1.000000000000000E+20
 30
1.000000000000000E+20
  9
$PEXTMAX
 10
-1.000000000000000E+20
 20
-1.000000000000000E+20
 30
-1.000000000000000E+20
  9
$PLIMMIN
 10
0.0
 20
0.0
  9
$PLIMMAX
 10
12.0
 20
9.0
  9
$UNITMODE
 70
     0
  9
$VISRETAIN
 70
     1
  9
$PLINEGEN
 70
     0
  9
$PSLTSCALE
 70
     1
  9
$TREEDEPTH
 70
  3020
  9
$CMLSTYLE
  2
Standard
  9
$CMLJUST
 70
     0
  9
$CMLSCALE
 40
1.0
  9
$PROXYGRAPHICS
 70
     1
  9
$MEASUREMENT
 70
     1
  9
$CELWEIGHT
370
    -1
  9
$ENDCAPS
280
     0
  9
$JOINSTYLE
280
     0
  9
$LWDISPLAY
290
     0
  9
$INSUNITS
 70
     4
  9
$HYPERLINKBASE
  1

  9
$STYLESHEET
  1

  9
$XEDIT
290
     1
  9
$CEPSNTYPE
380
     0
  9
$PSTYLEMODE
290
     1
  9
$FINGERPRINTGUID
  2
{dc0d27f7-c4be-4f69-8be6-b46ea1046d66}
  9
$VERSIONGUID
  2
{FAEB1C32-E019-11D5-929B-00C0DF256EC4}
  9
$EXTNAMES
290
     1
  9
$PSVPSCALE
 40
0.0
  9
$OLESTARTUP
290
     0
  9
$SORTENTS
280
   127
  9
$INDEXCTL
280
     0
  9
$HIDETEXT
280
     1
  9
$XCLIPFRAME
290
     0
  9
$HALOGAP
280
     0
  9
$OBSCOLOR
 70
   257
  9
$OBSLTYPE
280
     0
  9
$INTERSECTIONDISPLAY
280
     0
  9
$INTERSECTIONCOLOR
 70
   257
  9
$DIMASSOC
280
     2
  9
$PROJECTNAME
  1

  9
$CAMERADISPLAY
290
     0
  9
$LENSLENGTH
 40
50.0
  9
$CAMERAHEIGHT
 40
0.0
  9
$STEPSPERSEC
 40
2.0
  9
$STEPSIZE
 40
6.0
  9
$3DDWFPREC
 40
2.0
  9
$PSOLWIDTH
 40
0.25
  9
$PSOLHEIGHT
 40
4.0
  9
$LOFTANG1
 40
1.570796326794897
  9
$LOFTANG2
 40
1.570796326794897
  9
$LOFTMAG1
 40
0.0
  9
$LOFTMAG2
 40
0.0
  9
$LOFTPARAM
 70
     7
  9
$LOFTNORMALS
280
     1
  9
$LATITUDE
 40
37.795
  9
$LONGITUDE
 40
-122.394
  9
$NORTHDIRECTION
 40
0.0
  9
$TIMEZONE
 70
 -8000
  9
$LIGHTGLYPHDISPLAY
280
     1
  9
$TILEMODELIGHTSYNCH
280
     1
  9
$CMATERIAL
347
44
  9
$SOLIDHIST
280
     0
  9
$SHOWHIST
280
     1
  9
$DWFFRAME
280
     2
  9
$DGNFRAME
280
     2
  9
$REALWORLDSCALE
290
     1
  9
$INTERFERECOLOR
 62
   256
  9
$CSHADOW
280
     0
  9
$SHADOWPLANELOCATION
 40
0.0
  0
ENDSEC
  0
SECTION
  2
CLASSES
  0
CLASS
  1
ACDBDICTIONARYWDFLT
  2
AcDbDictionaryWithDefault
  3
ObjectDBX Classes
 90
        0
 91
        3
280
     0
281
     0
  0
CLASS
  1
VISUALSTYLE
  2
AcDbVisualStyle
  3
ObjectDBX Classes
 90
     4095
 91
        3
280
     0
281
     0
  0
CLASS
  1
MATERIAL
  2
AcDbMaterial
  3
ObjectDBX Classes
 90
     1153
 91
        3
280
     0
281
     0
  0
CLASS
  1
SCALE
  2
AcDbScale
  3
ObjectDBX Classes
 90
     1153
 91
        3
280
     0
281
     0
  0
CLASS
  1
TABLESTYLE
  2
AcDbTableStyle
  3
ObjectDBX Classes
 90
     4095
 91
        3
280
     0
281
     0
  0
CLASS
  1
MLEADERSTYLE
  2
AcDbMLeaderStyle
  3
ACDB_MLEADERSTYLE_CLASS
 90
     4095
 91
        3
280
     0
281
     0
  0
CLASS
  1
SUN
  2
AcDbSun
  3
SCENEOE
 90
     1153
 91
        3
280
     0
281
     0
  0
CLASS
  1
DICTIONARYVAR
  2
AcDbDictionaryVar
  3
ObjectDBX Classes
 90
        0
 91
        3
280
     0
281
     0
  0
CLASS
  1
CELLSTYLEMAP
  2
AcDbCellStyleMap
  3
ObjectDBX Classes
 90
     1152
 91
        3
280
     0
281
     0
  0
ENDSEC
  0
SECTION
  2
TABLES
  0
TABLE
  2
VPORT
  5
8
330
0
100
AcDbSymbolTable
 70
     1
  0
VPORT
  5
29
330
8
100
AcDbSymbolTableRecord
100
AcDbViewportTableRecord
  2
*Active
 70
     0
 10
0.0
 20
0.0
 11
1.0
 21
1.0
 12
10.42990654205607
 22
4.5
 13
0.0
 23
0.0
 14
0.5
 24
0.5
 15
0.5
 25
0.5
 16
0.0
 26
0.0
 36
1.0
 17
0.0
 27
0.0
 37
0.0
 40
9.0
 41
1.972972972850329
 42
50.0
 43
0.0
 44
0.0
 50
0.0
 51
0.0
 71
     0
 72
   100
 73
     1
 74
     3
 75
     0
 76
     0
 77
     0
 78
     0
281
     0
 65
     1
110
0.0
120
0.0
130
0.0
111
1.0
121
0.0
131
0.0
112
0.0
122
1.0
132
0.0
 79
     0
146
0.0
348
2F
 60
     3
 61
     5
292
     1
282
     1
141
0.0
142
0.0
 63
   250
361
5D
  0
ENDTAB
  0
TABLE
  2
LTYPE
  5
5
330
0
100
AcDbSymbolTable
 70
     1
  0
LTYPE
  5
14
330
5
100
AcDbSymbolTableRecord
100
AcDbLinetypeTableRecord
  2
ByBlock
 70
     0
  3

 72
    65
 73
     0
 40
0.0
  0
LTYPE
  5
15
330
5
100
AcDbSymbolTableRecord
100
AcDbLinetypeTableRecord
  2
ByLayer
 70
     0
  3

 72
    65
 73
     0
 40
0.0
  0
LTYPE
  5
16
330
5
100
AcDbSymbolTableRecord
100
AcDbLinetypeTableRecord
  2
Continuous
 70
     0
  3
Solid line
 72
    65
 73
     0
 40
0.0
  0
ENDTAB
  0
TABLE
  2
LAYER
  5
2
330
0
100
AcDbSymbolTable
 70
     2
  0
LAYER
  5
10
330
2
100
AcDbSymbolTableRecord
100
AcDbLayerTableRecord
  2
0
 70
     0
 62
     7
  6
Continuous
370
    -3
390
F
347
46
  0
LAYER
  5
5F
330
2
100
AcDbSymbolTableRecord
100
AcDbLayerTableRecord
  2
Livello 01
 70
     0
 62
    18
420
        0
  6
Continuous
370
    -3
390
F
347
46
  0
ENDTAB
  0
TABLE
  2
STYLE
  5
3
330
0
100
AcDbSymbolTable
 70
     1
  0
STYLE
  5
11
330
3
100
AcDbSymbolTableRecord
100
AcDbTextStyleTableRecord
  2
Standard
 70
     0
 40
0.0
 41
1.0
 50
0.0
 71
     0
 42
0.2
  3
txt
  4

  0
ENDTAB
  0
TABLE
  2
VIEW
  5
6
330
0
100
AcDbSymbolTable
 70
     0
  0
ENDTAB
  0
TABLE
  2
UCS
  5
7
330
0
100
AcDbSymbolTable
 70
     0
  0
ENDTAB
  0
TABLE
  2
APPID
  5
9
330
0
100
AcDbSymbolTable
 70
     3
  0
APPID
  5
12
330
9
100
AcDbSymbolTableRecord
100
AcDbRegAppTableRecord
  2
ACAD
 70
     0
  0
APPID
  5
5E
330
9
100
AcDbSymbolTableRecord
100
AcDbRegAppTableRecord
  2
Rhino
 70
     0
  0
APPID
  5
2CF
330
9
100
AcDbSymbolTableRecord
100
AcDbRegAppTableRecord
  2
ACAD_MLEADERVER
 70
     0
  0
ENDTAB
  0
TABLE
  2
DIMSTYLE
  5
A
330
0
100
AcDbSymbolTable
 70
     1
100
AcDbDimStyleTable
  0
DIMSTYLE
105
27
330
A
100
AcDbSymbolTableRecord
100
AcDbDimStyleTableRecord
  2
STANDARD_ACAD
 70
     0
178
     0
340
11
  0
ENDTAB
  0
TABLE
  2
BLOCK_RECORD
  5
1
330
0
100
AcDbSymbolTable
 70
    10
  0
BLOCK_RECORD
  5
1F
330
1
100
AcDbSymbolTableRecord
100
AcDbBlockTableRecord
  2
*Model_Space
340
22
 70
     0
280
     1
281
     0
  0
BLOCK_RECORD
  5
1B
330
1
100
AcDbSymbolTableRecord
100
AcDbBlockTableRecord
  2
*Paper_Space
340
1E
 70
     0
280
     1
281
     0
  0
BLOCK_RECORD
  5
23
330
1
100
AcDbSymbolTableRecord
100
AcDbBlockTableRecord
  2
*Paper_Space0
340
26
 70
     0
280
     1
281
     0
  0
BLOCK_RECORD
  5
60
330
1
100
AcDbSymbolTableRecord
100
AcDbBlockTableRecord
  2
3600BR01-00
340
0
102
{BLKREFS
331
299
102
}
 70
     0
280
     1
281
     0
  0
BLOCK_RECORD
  5
61
330
1
100
AcDbSymbolTableRecord
100
AcDbBlockTableRecord
  2
3600BR01-01
340
0
102
{BLKREFS
331
296
102
}
 70
     0
280
     1
281
     0
  0
BLOCK_RECORD
  5
62
330
1
100
AcDbSymbolTableRecord
100
AcDbBlockTableRecord
  2
10TU12960YY
340
0
102
{BLKREFS
331
C5
102
}
 70
     0
280
     1
281
     0
  0
BLOCK_RECORD
  5
C6
330
1
100
AcDbSymbolTableRecord
100
AcDbBlockTableRecord
  2
10TP00160YY
340
0
102
{BLKREFS
331
167
102
}
 70
     0
280
     1
281
     0
  0
BLOCK_RECORD
  5
168
330
1
100
AcDbSymbolTableRecord
100
AcDbBlockTableRecord
  2
10NI00360YY
340
0
102
{BLKREFS
331
1F5
102
}
 70
     0
280
     1
281
     0
  0
BLOCK_RECORD
  5
1F6
330
1
100
AcDbSymbolTableRecord
100
AcDbBlockTableRecord
  2
10GG20760YY
340
0
102
{BLKREFS
331
232
102
}
 70
     0
280
     1
281
     0
  0
BLOCK_RECORD
  5
233
330
1
100
AcDbSymbolTableRecord
100
AcDbBlockTableRecord
  2
10OR0126000
340
0
102
{BLKREFS
331
23E
331
23F
331
240
331
241
102
}
 70
     0
280
     1
281
     0
  0
BLOCK_RECORD
  5
242
330
1
100
AcDbSymbolTableRecord
100
AcDbBlockTableRecord
  2
10OR0076000
340
0
102
{BLKREFS
331
24D
102
}
 70
     0
280
     1
281
     0
  0
BLOCK_RECORD
  5
24E
330
1
100
AcDbSymbolTableRecord
100
AcDbBlockTableRecord
  2
10BO00860YY
340
0
102
{BLKREFS
331
293
102
}
 70
     0
280
     1
281
     0
  0
ENDTAB
  0
ENDSEC
  0
SECTION
  2
BLOCKS
  0
BLOCK
  5
20
330
1F
100
AcDbEntity
  8
0
100
AcDbBlockBegin
  2
*Model_Space
 70
     0
 10
0.0
 20
0.0
 30
0.0
  3
*Model_Space
  1

  0
ENDBLK
  5
21
330
1F
100
AcDbEntity
  8
0
100
AcDbBlockEnd
  0
BLOCK
  5
1C
330
1B
100
AcDbEntity
 67
     1
  8
0
100
AcDbBlockBegin
  2
*Paper_Space
 70
     0
 10
0.0
 20
0.0
 30
0.0
  3
*Paper_Space
  1

  0
ENDBLK
  5
1D
330
1B
100
AcDbEntity
 67
     1
  8
0
100
AcDbBlockEnd
  0
BLOCK
  5
24
330
23
100
AcDbEntity
  8
0
100
AcDbBlockBegin
  2
*Paper_Space0
 70
     0
 10
0.0
 20
0.0
 30
0.0
  3
*Paper_Space0
  1

  0
ENDBLK
  5
25
330
23
100
AcDbEntity
  8
0
100
AcDbBlockEnd
  0
BLOCK
  5
297
330
60
100
AcDbEntity
  8
0
100
AcDbBlockBegin
  2
3600BR01-00
 70
     0
 10
0.0
 20
0.0
 30
0.0
  3
3600BR01-00
  1

  0
INSERT
  5
296
330
60
100
AcDbEntity
  8
Livello 01
100
AcDbBlockReference
  2
3600BR01-01
 10
0.0
 20
-0.0000021735123978
 30
0.0
 50
90.0
210
-1.0
220
0.0
230
0.0
  0
ENDBLK
  5
298
330
60
100
AcDbEntity
  8
0
100
AcDbBlockEnd
  0
BLOCK
  5
294
330
61
100
AcDbEntity
  8
0
100
AcDbBlockBegin
  2
3600BR01-01
 70
     0
 10
0.0
 20
0.0
 30
0.0
  3
3600BR01-01
  1

  0
INSERT
  5
C5
330
61
100
AcDbEntity
  8
Livello 01
100
AcDbBlockReference
  2
10TU12960YY
 10
0.0
 20
0.0
 30
0.0
  0
INSERT
  5
167
330
61
100
AcDbEntity
  8
Livello 01
100
AcDbBlockReference
  2
10TP00160YY
 10
-0.0000000000002474
 20
-0.0000000000002426
 30
330.0
 50
270.0
210
1.0
220
7.495671723055740E-16
230
7.351249052285330E-16
  0
INSERT
  5
1F5
330
61
100
AcDbEntity
  8
Livello 01
100
AcDbBlockReference
  2
10NI00360YY
 10
350.0
 20
0.0
 30
-20.6
 50
0.0000000000000056
  0
INSERT
  5
232
330
61
100
AcDbEntity
  8
Livello 01
100
AcDbBlockReference
  2
10GG20760YY
 10
-0.0000000000000031
 20
0.0000000000000096
 30
18.5
 50
180.0
210
1.0
220
1.683012195529520E-16
230
-1.704174294334770E-16
  0
INSERT
  5
23E
330
61
100
AcDbEntity
  8
Livello 01
100
AcDbBlockReference
  2
10OR0126000
 10
0.000000000000104
 20
0.0000000000003267
 30
332.4
 50
270.0
210
1.0
220
-3.128803945786640E-16
230
-9.827816588727829E-16
  0
INSERT
  5
23F
330
61
100
AcDbEntity
  8
Livello 01
100
AcDbBlockReference
  2
10OR0126000
 10
0.0000000000001224
 20
0.000000000000388
 30
335.9
 50
270.0
210
1.0
220
-3.644616141892020E-16
230
-1.154994667484970E-15
  0
INSERT
  5
240
330
61
100
AcDbEntity
  8
Livello 01
100
AcDbBlockReference
  2
10OR0126000
 10
0.000000000000134
 20
0.0000000000004248
 30
367.8
 50
270.0
210
1.0
220
-3.644616141892020E-16
230
-1.154994667484970E-15
  0
INSERT
  5
241
330
61
100
AcDbEntity
  8
Livello 01
100
AcDbBlockReference
  2
10OR0126000
 10
0.0000000000001325
 20
0.0000000000004198
 30
363.5
 50
270.0
210
1.0
220
-3.644616141892020E-16
230
-1.154994667484970E-15
  0
INSERT
  5
24D
330
61
100
AcDbEntity
  8
Livello 01
100
AcDbBlockReference
  2
10OR0076000
 10
350.0
 20
0.0
 30
-5.09999999999998
 50
0.0000000000000207
  0
INSERT
  5
293
330
61
100
AcDbEntity
  8
Livello 01
100
AcDbBlockReference
  2
10BO00860YY
 10
-13.0
 20
-0.0000000000000098
 30
-0.0000000000000015
 50
89.99999999999997
210
-1.159901676366110E-16
220
3.885780586188040E-16
230
-1.0
  0
ENDBLK
  5
295
330
61
100
AcDbEntity
  8
0
100
AcDbBlockEnd
  0
BLOCK
  5
C3
330
62
100
AcDbEntity
  8
0
100
AcDbBlockBegin
  2
10TU12960YY
 70
     0
 10
0.0
 20
0.0
 30
0.0
  3
10TU12960YY
  1

  0
ARC
  5
63
330
62
100
AcDbEntity
  8
Livello 01
100
AcDbCircle
 10
0.0
 20
0.0
 30
-370.0
 40
10.0
210
-1.0
220
0.0
230
0.0
100
AcDbArc
 50
89.99999999999994
 51
180.0
  0
CIRCLE
  5
64
330
62
100
AcDbEntity
  8
Livello 01
100
AcDbCircle
 10
0.0
 20
0.0
 30
20.05
 40
10.0
210
1.0
220
0.0
230
0.0
  0
SPLINE
  5
65
330
62
100
AcDbEntity
  8
Livello 01
100
AcDbSpline
 70
     3
 71
     3
 72
    29
 73
    25
 74
     0
 42
0.0000000001
 43
0.0000000001
 40
0.0
 40
0.0
 40
0.0
 40
0.0
 40
3.184728477772656
 40
6.369456955545306
 40
9.554185433317967
 40
11.14654967220426
 40
12.73891391109064
 40
14.33127814997692
 40
15.9236423888633
 40
19.10837086663595
 40
22.29309934440862
 40
25.47782782218127
 40
28.66255629995393
 40
31.84728477772649
 40
33.43964901661288
 40
35.03201325549915
 40
36.62437749438553
 40
38.21674173327181
 40
39.80910597215819
 40
41.40147021104448
 40
44.58619868881713
 40
47.77092716658979
 40
49.36329140547618
 40
50.95565564436245
 40
50.95565564436245
 40
50.95565564436245
 40
50.95565564436245
 10
357.5999999999998
 20
-0.0000000000000045
 30
-10.00000000000002
 10
357.5999090154414
 20
1.050564066750507
 30
-9.999511191899447
 10
357.152044497155
 20
3.11628828726378
 30
-9.65368155133844
 10
355.454912671347
 20
5.54059997693124
 30
-8.44181830343419
 10
353.488845172221
 20
6.87439988552941
 30
-7.29547512578239
 10
351.580168903225
 20
7.48742125926903
 30
-6.63395794006144
 10
350.012341527493
 20
7.65489817379182
 30
-6.43349001028699
 10
348.445868562733
 20
7.49292370232737
 30
-6.62753926318334
 10
346.528583858063
 20
6.88430763179719
 30
-7.28607939487742
 10
344.556992443728
 20
5.5510268664266
 30
-8.43408880175705
 10
342.858198351418
 20
3.14016555168243
 30
-9.64583880405584
 10
342.174725632458
 20
0.0308548622584108
 30
-10.1738848663141
 10
342.843154248077
 20
-3.11104736728379
 30
-9.65842783262751
 10
344.250475838863
 20
-5.12800714686331
 30
-8.6481604891304
 10
345.72935279445
 20
-6.33997682349512
 30
-7.75632278744108
 10
346.980417586727
 20
-7.0248159427904
 30
-7.13245647918108
 10
348.417927007058
 20
-7.48733154306985
 30
-6.63427241189551
 10
349.990055451765
 20
-7.65534617251911
 30
-6.43293229026196
 10
351.560909461106
 20
-7.4912430443156
 30
-6.62943038893929
 10
353.46709710976
 20
-6.88554459513312
 30
-7.28467729243242
 10
355.448948320956
 20
-5.54789109543332
 30
-8.43765024609708
 10
356.857467287366
 20
-3.53803027480719
 30
-9.44240143225965
 10
357.488215839545
 20
-1.5846970783727
 30
-9.91452020606091
 10
357.600045492279
 20
-0.5252820333752535
 30
-10.0002444040503
 10
357.5999999999998
 20
-0.0000000000000152
 30
-10.00000000000002
  0
LINE
  5
66
330
62
100
AcDbEntity
  8
Livello 01
100
AcDbLine
 10
370.0000000000001
 20
0.0
 30
10.0
 11
20.04999999999994
 21
0.0
 31
10.0
  0
ARC
  5
67
330
62
100
AcDbEntity
  8
Livello 01
100
AcDbCircle
 10
0.0
 20
0.0
 30
-370.0
 40
10.0
210
-1.0
220
0.0
230
0.0
100
AcDbArc
 50
180.0
 51
89.99999999999991
  0
CIRCLE
  5
68
330
62
100
AcDbEntity
  8
Livello 01
100
AcDbCircle
 10
0.0
 20
0.0
 30
-369.0
 40
8.925
210
-1.0
220
0.0
230
0.0
  0
CIRCLE
  5
69
330
62
100
AcDbEntity
  8
Livello 01
100
AcDbCircle
 10
0.0
 20
0.0
 30
327.0
 40
8.925
210
1.0
220
0.0
230
0.0
  0
SPLINE
  5
6A
330
62
100
AcDbEntity
  8
Livello 01
100
AcDbSpline
 70
     3
 71
     3
 72
    31
 73
    27
 74
     0
 42
0.0000000001
 43
0.0000000001
 40
-52.05411789543518
 40
-52.05411789543518
 40
-52.05411789543518
 40
-52.05411789543518
 40
-50.42742671120285
 40
-48.80073552697043
 40
-45.54735315850579
 40
-43.92066197427337
 40
-42.29397079004104
 40
-40.66727960580873
 40
-39.0405884215764
 40
-37.41389723734398
 40
-35.78720605311166
 40
-32.53382368464702
 40
-29.28044131618227
 40
-26.02705894771753
 40
-22.77367657925289
 40
-19.52029421078815
 40
-17.89360302655583
 40
-16.26691184232351
 40
-14.64022065809119
 40
-13.01352947385876
 40
-11.38683828962644
 40
-9.760147105394092
 40
-8.133455921161742
 40
-6.506764736929399
 40
-3.253382368464696
 40
0.0
 40
0.0
 40
0.0
 40
0.0
 10
357.6000000000003
 20
-0.0000000000000143
 30
-8.92500000000003
 10
357.6004638872985
 20
0.5364172973374252
 30
-8.92547313835076
 10
357.483275239877
 20
1.61721088307208
 30
-8.82513293487884
 10
356.830048893265
 20
3.59462960551698
 30
-8.2751346707944
 10
355.69795122553
 20
5.17871655126999
 30
-7.34905094630226
 10
354.24907435342
 20
6.35234899411693
 30
-6.30152994547827
 10
353.016302594362
 20
7.02391517265433
 30
-5.53236795605207
 10
351.613212454949
 20
7.48008167001869
 30
-4.88022239496226
 10
350.015559408055
 20
7.65845135799085
 30
-4.58121999197821
 10
348.411289815287
 20
7.48603040001916
 30
-4.87068834390052
 10
346.532742620885
 20
6.87971793436042
 30
-5.74114122151413
 10
344.605408031241
 20
5.58989291323645
 30
-7.10651880224157
 10
342.878269046943
 20
3.20246273452614
 30
-8.512591885964
 10
342.162500067086
 20
0.0090509995830098
 30
-9.12948131091849
 10
342.871760294617
 20
-3.18670114228752
 30
-8.51945765632616
 10
344.304931011034
 20
-5.18145144357977
 30
-7.34669668170575
 10
345.753389831931
 20
-6.35431596820425
 30
-6.29974222273687
 10
346.993666216323
 20
-7.02861000168601
 30
-5.52658793142318
 10
348.401802974101
 20
-7.48381263715116
 30
-4.87429797905671
 10
350.006297068814
 20
-7.65827344092206
 30
-4.58141662307572
 10
351.601066121493
 20
-7.48308496740478
 30
-4.87570626356797
 10
353.014822005731
 20
-7.02465475698446
 30
-5.53130078371222
 10
354.241203886532
 20
-6.35746886327045
 30
-6.29636196029033
 10
355.699145842076
 20
-5.17903435292449
 30
-7.34936037318377
 10
357.12475098814
 20
-3.18666781978569
 30
-8.51701524920213
 10
357.599072225404
 20
-1.072834594674893
 30
-8.92405372329857
 10
357.6000000000003
 20
-0.0000000000000012
 30
-8.925000000000031
  0
LINE
  5
6B
330
62
100
AcDbEntity
  8
Livello 01
100
AcDbLine
 10
327.0
 20
8.925
 30
0.0
 11
369.0
 21
8.924999999999997
 31
0.0
  0
CIRCLE
  5
6C
330
62
100
AcDbEntity
  8
Livello 01
100
AcDbCircle
 10
0.0
 20
0.0
 30
-327.0
 40
8.0
210
-1.0
220
0.0
230
0.0
  0
ARC
  5
6D
330
62
100
AcDbEntity
  8
Livello 01
100
AcDbCircle
 10
0.0
 20
0.0000000000000037
 30
-2.0
 40
8.0
210
-1.0
220
0.0
230
0.0
100
AcDbArc
 50
0.0
 51
89.99999999999999
  0
LINE
  5
6E
330
62
100
AcDbEntity
  8
Livello 01
100
AcDbLine
 10
327.0
 20
0.0
 30
8.0
 11
2.0
 21
0.0
 31
8.0
  0
ARC
  5
6F
330
62
100
AcDbEntity
  8
Livello 01
100
AcDbCircle
 10
0.0
 20
0.0000000000000037
 30
-2.0
 40
8.0
210
-1.0
220
0.0
230
0.0
100
AcDbArc
 50
90.0
 51
0.0
  0
CIRCLE
  5
70
330
62
100
AcDbEntity
  8
Livello 01
100
AcDbCircle
 10
-0.0000000000000036
 20
0.000000000000003
 30
1.0
 40
6.25
210
1.0
220
0.0
230
0.0
  0
ARC
  5
71
330
62
100
AcDbEntity
  8
Livello 01
100
AcDbCircle
 10
0.0000000000000036
 20
0.000000000000003
 30
-2.0
 40
6.25
210
-1.0
220
0.0
230
0.0
100
AcDbArc
 50
0.000000000000014
 51
180.0
  0
LINE
  5
72
330
62
100
AcDbEntity
  8
Livello 01
100
AcDbLine
 10
1.999999999999999
 20
-6.250000000000004
 30
0.000000000000003
 11
0.9999999999999996
 21
-6.250000000000004
 31
0.000000000000003
  0
ARC
  5
73
330
62
100
AcDbEntity
  8
Livello 01
100
AcDbCircle
 10
0.0000000000000036
 20
0.000000000000003
 30
-2.0
 40
6.25
210
-1.0
220
0.0
230
0.0
100
AcDbArc
 50
180.0
 51
0.0
  0
CIRCLE
  5
74
330
62
100
AcDbEntity
  8
Livello 01
100
AcDbCircle
 10
0.0
 20
0.0
 30
-19.9511732198823
 40
9.98923219878705
210
-1.0
220
0.0
230
0.0
  0
ARC
  5
75
330
62
100
AcDbEntity
  8
Livello 01
100
AcDbCircle
 10
20.0
 20
10.0
 30
0.0
 40
0.05
210
0.0
220
-1.0
230
0.0
100
AcDbArc
 50
192.4364152979363
 51
0.0
  0
LINE
  5
76
330
62
100
AcDbEntity
  8
Livello 01
100
AcDbLine
 10
19.3434952077411
 20
-10.4775
 30
0.0
 11
0.4999999999999987
 21
-10.4775
 31
0.0
  0
LINE
  5
77
330
62
100
AcDbEntity
  8
Livello 01
100
AcDbLine
 10
357.6
 20
-0.0000000000000152
 30
-10.00000000000002
 11
357.6
 21
-0.0000000000000152
 31
-8.925000000000027
  0
ARC
  5
78
330
62
100
AcDbEntity
  8
Livello 01
100
AcDbCircle
 10
0.0
 20
0.0
 30
-370.0
 40
9.925
210
-1.0
220
0.0
230
0.0
100
AcDbArc
 50
180.0
 51
0.0
  0
LINE
  5
79
330
62
100
AcDbEntity
  8
Livello 01
100
AcDbLine
 10
369.0
 20
8.925000000000008
 30
0.0
 11
370.0
 21
9.925000000000008
 31
0.0
  0
ARC
  5
7A
330
62
100
AcDbEntity
  8
Livello 01
100
AcDbCircle
 10
0.0
 20
0.0
 30
-370.0
 40
9.925
210
-1.0
220
0.0
230
0.0
100
AcDbArc
 50
0.0
 51
180.0
  0
CIRCLE
  5
7B
330
62
100
AcDbEntity
  8
Livello 01
100
AcDbCircle
 10
-0.0000000000000035
 20
0.000000000000003
 30
0.0
 40
7.25
210
1.0
220
0.0
230
0.0
  0
ARC
  5
7C
330
62
100
AcDbEntity
  8
Livello 01
100
AcDbCircle
 10
-0.9999999999999996
 20
-7.250000000000004
 30
-0.000000000000003
 40
1.0
210
0.0
220
0.0
230
-1.0
100
AcDbArc
 50
0.0
 51
90.0
  0
ARC
  5
7D
330
62
100
AcDbEntity
  8
Livello 01
100
AcDbCircle
 10
-0.0000000000000047
 20
0.0
 30
19.3434952077411
 40
10.4775
210
1.0
220
0.0
230
0.0
100
AcDbArc
 50
90.00000000000001
 51
180.0
  0
LINE
  5
7E
330
62
100
AcDbEntity
  8
Livello 01
100
AcDbLine
 10
19.95117321988046
 20
0.0
 30
9.989232198784762
 11
19.34349520774109
 21
0.0
 31
10.47749999999998
  0
ARC
  5
7F
330
62
100
AcDbEntity
  8
Livello 01
100
AcDbCircle
 10
-0.0000000000000047
 20
0.0
 30
19.3434952077411
 40
10.4775
210
1.0
220
0.0
230
0.0
100
AcDbArc
 50
180.0
 51
90.0
  0
ARC
  5
80
330
62
100
AcDbEntity
  8
Livello 01
100
AcDbCircle
 10
-0.0000000000000035
 20
0.000000000000003
 30
0.0
 40
9.9775
210
1.0
220
0.0
230
0.0
100
AcDbArc
 50
0.000000000000014
 51
180.0
  0
ARC
  5
81
330
62
100
AcDbEntity
  8
Livello 01
100
AcDbCircle
 10
0.0000000000000035
 20
0.000000000000003
 30
-0.5
 40
10.4775
210
-1.0
220
0.0
230
0.0
100
AcDbArc
 50
180.0
 51
0.0
  0
LINE
  5
82
330
62
100
AcDbEntity
  8
Livello 01
100
AcDbLine
 10
0.0000000000000009
 20
9.977499999999997
 30
0.000000000000003
 11
0.5000000000000011
 21
10.4775
 31
0.000000000000003
  0
ARC
  5
83
330
62
100
AcDbEntity
  8
Livello 01
100
AcDbCircle
 10
-0.0000000000000035
 20
0.000000000000003
 30
0.0
 40
9.9775
210
1.0
220
0.0
230
0.0
100
AcDbArc
 50
180.0
 51
0.0
  0
ARC
  5
84
330
62
100
AcDbEntity
  8
Livello 01
100
AcDbCircle
 10
0.0000000000000035
 20
0.000000000000003
 30
-0.5
 40
10.4775
210
-1.0
220
0.0
230
0.0
100
AcDbArc
 50
0.0
 51
180.0
  0
CIRCLE
  5
85
330
62
100
AcDbEntity
  8
Livello 01
100
AcDbCircle
 10
0.0
 20
0.0
 30
-195.0250000000087
 40
10.0
210
-1.0
220
0.0
230
0.0
  0
LINE
  5
86
330
62
100
AcDbEntity
  8
Livello 01
100
AcDbLine
 10
370.0000000000001
 20
10.0
 30
0.0
 11
20.05000000000005
 21
10.0
 31
0.0
  0
LINE
  5
87
330
62
100
AcDbEntity
  8
Livello 01
100
AcDbLine
 10
370.0000000000001
 20
0.0
 30
-10.0
 11
357.5999999999999
 21
0.0
 31
-10.0
  0
LINE
  5
88
330
62
100
AcDbEntity
  8
Livello 01
100
AcDbLine
 10
342.4000213977779
 20
0.0
 30
-10.0
 11
20.05000000000005
 21
0.0
 31
-10.0
  0
LINE
  5
89
330
62
100
AcDbEntity
  8
Livello 01
100
AcDbLine
 10
370.0000000000001
 20
-10.0
 30
0.0
 11
20.05000000000005
 21
-10.0
 31
0.0
  0
ARC
  5
8A
330
62
100
AcDbEntity
  8
Livello 01
100
AcDbCircle
 10
-0.0000000000000013
 20
0.0
 30
348.0
 40
8.925
210
1.0
220
0.0
230
0.0
100
AcDbArc
 50
0.0
 51
214.7592271072718
  0
ARC
  5
8B
330
62
100
AcDbEntity
  8
Livello 01
100
AcDbCircle
 10
-0.0000000000000013
 20
0.0
 30
348.0
 40
8.925
210
1.0
220
0.0
230
0.0
100
AcDbArc
 50
325.2335323409985
 51
0.0
  0
LINE
  5
8C
330
62
100
AcDbEntity
  8
Livello 01
100
AcDbLine
 10
327.0
 20
0.0
 30
8.925
 11
369.0
 21
-0.0000000000000026
 31
8.925
  0
LINE
  5
8D
330
62
100
AcDbEntity
  8
Livello 01
100
AcDbLine
 10
327.0
 20
-8.924999999999999
 30
0.0
 11
369.0
 21
-8.925000000000002
 31
0.0
  0
LINE
  5
8E
330
62
100
AcDbEntity
  8
Livello 01
100
AcDbLine
 10
327.0
 20
0.0
 30
-8.924999999999999
 11
342.4000008381147
 21
-0.0000000000000009
 31
-8.925
  0
LINE
  5
8F
330
62
100
AcDbEntity
  8
Livello 01
100
AcDbLine
 10
357.6000000000003
 20
-0.0000000000000019
 30
-8.925000000000002
 11
368.9999999999999
 21
-0.0000000000000026
 31
-8.925000000000002
  0
CIRCLE
  5
90
330
62
100
AcDbEntity
  8
Livello 01
100
AcDbCircle
 10
0.0
 20
0.0
 30
-164.5
 40
8.0
210
-1.0
220
0.0
230
0.0
  0
LINE
  5
91
330
62
100
AcDbEntity
  8
Livello 01
100
AcDbLine
 10
327.0
 20
8.0
 30
0.0
 11
1.999999999999964
 21
8.0
 31
0.0
  0
LINE
  5
92
330
62
100
AcDbEntity
  8
Livello 01
100
AcDbLine
 10
327.0
 20
0.0
 30
-8.0
 11
1.999999999999964
 21
0.0
 31
-8.0
  0
LINE
  5
93
330
62
100
AcDbEntity
  8
Livello 01
100
AcDbLine
 10
327.0
 20
-8.0
 30
0.0
 11
1.999999999999964
 21
-8.0
 31
0.0
  0
LINE
  5
94
330
62
100
AcDbEntity
  8
Livello 01
100
AcDbLine
 10
370.0
 20
10.0
 30
0.0
 11
370.0
 21
9.925
 31
0.0
  0
LINE
  5
95
330
62
100
AcDbEntity
  8
Livello 01
100
AcDbLine
 10
370.0
 20
-9.925
 30
0.0
 11
370.0
 21
-10.0
 31
0.0
  0
LINE
  5
96
330
62
100
AcDbEntity
  8
Livello 01
100
AcDbLine
 10
370.0
 20
0.0
 30
-10.0
 11
370.0
 21
0.0
 31
-9.925
  0
LINE
  5
97
330
62
100
AcDbEntity
  8
Livello 01
100
AcDbLine
 10
370.0
 20
0.0
 30
9.925
 11
370.0
 21
0.0
 31
9.999999999999998
  0
LINE
  5
98
330
62
100
AcDbEntity
  8
Livello 01
100
AcDbLine
 10
0.0000000000000006
 20
9.977499999999996
 30
0.0000000000000028
 11
0.0000000000000004
 21
7.249999999999996
 31
0.0000000000000028
  0
LINE
  5
99
330
62
100
AcDbEntity
  8
Livello 01
100
AcDbLine
 10
-0.0000000000000004
 20
-7.250000000000001
 30
0.0000000000000028
 11
-0.0000000000000006
 21
-9.977500000000001
 31
0.0000000000000028
  0
LINE
  5
9A
330
62
100
AcDbEntity
  8
Livello 01
100
AcDbLine
 10
0.0
 20
-0.0000000000000027
 30
-9.977499999999996
 11
0.0
 21
-0.0000000000000027
 31
-7.249999999999998
  0
LINE
  5
9B
330
62
100
AcDbEntity
  8
Livello 01
100
AcDbLine
 10
0.0
 20
-0.0000000000000027
 30
7.250000000000001
 11
0.0
 21
-0.0000000000000027
 31
9.977499999999996
  0
LINE
  5
9C
330
62
100
AcDbEntity
  8
Livello 01
100
AcDbLine
 10
2.0
 20
8.0
 30
0.0000000000000037
 11
2.0
 21
6.249999999999996
 31
0.0000000000000037
  0
LINE
  5
9D
330
62
100
AcDbEntity
  8
Livello 01
100
AcDbLine
 10
2.0
 20
-6.250000000000001
 30
0.0000000000000037
 11
1.999999999999999
 21
-7.999999999999999
 31
0.0000000000000037
  0
LINE
  5
9E
330
62
100
AcDbEntity
  8
Livello 01
100
AcDbLine
 10
2.0
 20
-0.0000000000000006
 30
-7.999999999999996
 11
2.0
 21
-0.0000000000000006
 31
-6.249999999999998
  0
LINE
  5
9F
330
62
100
AcDbEntity
  8
Livello 01
100
AcDbLine
 10
2.0
 20
-0.0000000000000006
 30
6.250000000000005
 11
2.0
 21
-0.0000000000000006
 31
8.000000000000004
  0
CIRCLE
  5
A0
330
62
100
AcDbEntity
  8
Livello 01
100
AcDbCircle
 10
0.0000000000000036
 20
0.000000000000003
 30
-1.5
 40
6.25
210
-1.0
220
0.0
230
0.0
  0
LINE
  5
A1
330
62
100
AcDbEntity
  8
Livello 01
100
AcDbLine
 10
2.0
 20
-0.0000000000000036
 30
6.250000000000003
 11
1.0
 21
-0.0000000000000036
 31
6.250000000000003
  0
LINE
  5
A2
330
62
100
AcDbEntity
  8
Livello 01
100
AcDbLine
 10
2.0
 20
6.249999999999996
 30
0.000000000000003
 11
1.0
 21
6.249999999999996
 31
0.000000000000003
  0
LINE
  5
A3
330
62
100
AcDbEntity
  8
Livello 01
100
AcDbLine
 10
2.0
 20
-0.0000000000000036
 30
-6.249999999999997
 11
1.0
 21
-0.0000000000000036
 31
-6.249999999999997
  0
LINE
  5
A4
330
62
100
AcDbEntity
  8
Livello 01
100
AcDbLine
 10
327.0
 20
-0.0000000000000009
 30
-8.925
 11
327.0
 21
-0.0000000000000009
 31
-8.0
  0
LINE
  5
A5
330
62
100
AcDbEntity
  8
Livello 01
100
AcDbLine
 10
327.0
 20
-0.0000000000000009
 30
7.999999999999999
 11
327.0
 21
-0.0000000000000009
 31
8.925
  0
LINE
  5
A6
330
62
100
AcDbEntity
  8
Livello 01
100
AcDbLine
 10
327.0
 20
-8.925
 30
0.0000000000000009
 11
327.0
 21
-8.0
 31
0.0000000000000009
  0
LINE
  5
A7
330
62
100
AcDbEntity
  8
Livello 01
100
AcDbLine
 10
327.0
 20
7.999999999999999
 30
0.0000000000000009
 11
327.0
 21
8.925
 31
0.0000000000000009
  0
CIRCLE
  5
A8
330
62
100
AcDbEntity
  8
Livello 01
100
AcDbCircle
 10
0.0
 20
0.0
 30
-20.0
 40
9.95
210
-1.0
220
0.0
230
0.0
  0
ARC
  5
A9
330
62
100
AcDbEntity
  8
Livello 01
100
AcDbCircle
 10
20.0
 20
10.0
 30
0.0
 40
0.05
100
AcDbArc
 50
192.4364152979363
 51
0.0
  0
ARC
  5
AA
330
62
100
AcDbEntity
  8
Livello 01
100
AcDbCircle
 10
-20.0
 20
-10.0
 30
0.0
 40
0.05
210
0.0
220
1.0
230
0.0
100
AcDbArc
 50
12.4364152979363
 51
180.0
  0
ARC
  5
AB
330
62
100
AcDbEntity
  8
Livello 01
100
AcDbCircle
 10
-20.0
 20
-10.0
 30
0.0
 40
0.05
210
0.0
220
0.0
230
-1.0
100
AcDbArc
 50
12.4364152979363
 51
180.0
  0
CIRCLE
  5
AC
330
62
100
AcDbEntity
  8
Livello 01
100
AcDbCircle
 10
0.0000000000000041
 20
0.0
 30
-9.921747603870557
 40
10.4775
210
-1.0
220
0.0
230
0.0
  0
LINE
  5
AD
330
62
100
AcDbEntity
  8
Livello 01
100
AcDbLine
 10
19.3434952077411
 20
-0.0000000000000047
 30
10.4775
 11
0.5000000000000002
 21
-0.0000000000000035
 31
10.4775
  0
LINE
  5
AE
330
62
100
AcDbEntity
  8
Livello 01
100
AcDbLine
 10
19.3434952077411
 20
10.4775
 30
0.0
 11
0.5000000000000009
 21
10.4775
 31
0.0
  0
LINE
  5
AF
330
62
100
AcDbEntity
  8
Livello 01
100
AcDbLine
 10
19.3434952077411
 20
-0.0000000000000047
 30
-10.4775
 11
0.5000000000000002
 21
-0.0000000000000035
 31
-10.4775
  0
ARC
  5
B0
330
62
100
AcDbEntity
  8
Livello 01
100
AcDbCircle
 10
350.0
 20
0.0
 30
-7.377552429146185
 40
7.600000000000023
100
AcDbArc
 50
41.36843119126312
 51
62.62649430761009
  0
ARC
  5
B1
330
62
100
AcDbEntity
  8
Livello 01
100
AcDbCircle
 10
350.0
 20
0.0
 30
-7.377552429146185
 40
7.600000000000023
100
AcDbArc
 50
117.3766513572704
 51
138.6144499207136
  0
ARC
  5
B2
330
62
100
AcDbEntity
  8
Livello 01
100
AcDbCircle
 10
350.0
 20
0.0
 30
-7.377552429146185
 40
7.600000000000023
100
AcDbArc
 50
221.3725363893387
 51
242.6428671281036
  0
ARC
  5
B3
330
62
100
AcDbEntity
  8
Livello 01
100
AcDbCircle
 10
350.0
 20
0.0
 30
-7.377552429146185
 40
7.600000000000023
100
AcDbArc
 50
297.3722888796834
 51
318.6279930503409
  0
LINE
  5
B4
330
62
100
AcDbEntity
  8
Livello 01
100
AcDbLine
 10
350.0
 20
7.600000000000023
 30
-6.49922868936234
 11
350.0
 21
7.600000000000023
 31
-4.67927815925495
  0
LINE
  5
B5
330
62
100
AcDbEntity
  8
Livello 01
100
AcDbLine
 10
342.4
 20
0.0000000000000152
 30
-9.99998583260402
 11
342.4
 21
0.0000000000000152
 31
-8.925001424527553
  0
LINE
  5
B6
330
62
100
AcDbEntity
  8
Livello 01
100
AcDbLine
 10
350.0
 20
-7.600000000000023
 30
-6.499230563985002
 11
350.0
 21
-7.600000000000023
 31
-4.679278768476645
  0
LINE
  5
B7
330
62
100
AcDbEntity
  8
Livello 01
100
AcDbLine
 10
369.0
 20
0.0000000000000001
 30
8.925000000000008
 11
370.0
 21
0.0
 31
9.925000000000008
  0
LINE
  5
B8
330
62
100
AcDbEntity
  8
Livello 01
100
AcDbLine
 10
369.0
 20
-8.925000000000008
 30
0.0
 11
370.0
 21
-9.925000000000008
 31
0.0
  0
LINE
  5
B9
330
62
100
AcDbEntity
  8
Livello 01
100
AcDbLine
 10
369.0
 20
0.0000000000000001
 30
-8.925000000000008
 11
370.0
 21
0.0
 31
-9.925000000000008
  0
ARC
  5
BA
330
62
100
AcDbEntity
  8
Livello 01
100
AcDbCircle
 10
1.0
 20
7.250000000000003
 30
0.0000000000000036
 40
1.0
210
0.0
220
-1.0
230
0.0
100
AcDbArc
 50
180.0
 51
270.0
  0
ARC
  5
BB
330
62
100
AcDbEntity
  8
Livello 01
100
AcDbCircle
 10
1.0
 20
7.249999999999996
 30
0.000000000000003
 40
1.0
100
AcDbArc
 50
180.0
 51
270.0
  0
ARC
  5
BC
330
62
100
AcDbEntity
  8
Livello 01
100
AcDbCircle
 10
-1.0
 20
-7.249999999999997
 30
-0.0000000000000036
 40
1.0
210
0.0
220
1.0
230
0.0
100
AcDbArc
 50
0.0
 51
90.0
  0
LINE
  5
BD
330
62
100
AcDbEntity
  8
Livello 01
100
AcDbLine
 10
19.95117321988046
 20
9.98923219878476
 30
0.0
 11
19.34349520774108
 21
10.47749999999998
 31
0.0
  0
LINE
  5
BE
330
62
100
AcDbEntity
  8
Livello 01
100
AcDbLine
 10
19.95117321988046
 20
0.0
 30
-9.98923219878476
 11
19.34349520774108
 21
0.0
 31
-10.47749999999998
  0
LINE
  5
BF
330
62
100
AcDbEntity
  8
Livello 01
100
AcDbLine
 10
19.95117321988046
 20
-9.98923219878476
 30
0.0
 11
19.34349520774108
 21
-10.47749999999998
 31
0.0
  0
LINE
  5
C0
330
62
100
AcDbEntity
  8
Livello 01
100
AcDbLine
 10
0.0
 20
-0.0000000000000035
 30
9.977500000000004
 11
0.5000000000000003
 21
-0.0000000000000035
 31
10.4775
  0
LINE
  5
C1
330
62
100
AcDbEntity
  8
Livello 01
100
AcDbLine
 10
-0.0000000000000004
 20
-9.977500000000004
 30
0.000000000000003
 11
0.4999999999999999
 21
-10.4775
 31
0.000000000000003
  0
LINE
  5
C2
330
62
100
AcDbEntity
  8
Livello 01
100
AcDbLine
 10
0.0
 20
-0.0000000000000035
 30
-9.977499999999997
 11
0.5000000000000003
 21
-0.0000000000000035
 31
-10.4775
  0
ENDBLK
  5
C4
330
62
100
AcDbEntity
  8
0
100
AcDbBlockEnd
  0
BLOCK
  5
165
330
C6
100
AcDbEntity
  8
0
100
AcDbBlockBegin
  2
10TP00160YY
 70
     0
 10
0.0
 20
0.0
 30
0.0
  3
10TP00160YY
  1

  0
CIRCLE
  5
C7
330
C6
100
AcDbEntity
  8
Livello 01
100
AcDbCircle
 10
0.0
 20
0.0
 30
40.0
 40
9.975
  0
CIRCLE
  5
C8
330
C6
100
AcDbEntity
  8
Livello 01
100
AcDbCircle
 10
0.0
 20
0.0
 30
-43.0
 40
9.975
210
0.0
220
0.0
230
-1.0
  0
LINE
  5
C9
330
C6
100
AcDbEntity
  8
Livello 01
100
AcDbLine
 10
-9.975
 20
0.0
 30
43.0
 11
-9.975
 21
0.0
 31
40.0
  0
CIRCLE
  5
CA
330
C6
100
AcDbEntity
  8
Livello 01
100
AcDbCircle
 10
0.0
 20
0.0
 30
37.8
 40
7.535
  0
CIRCLE
  5
CB
330
C6
100
AcDbEntity
  8
Livello 01
100
AcDbCircle
 10
0.0
 20
0.0
 30
-40.0
 40
7.535
210
0.0
220
0.0
230
-1.0
  0
LINE
  5
CC
330
C6
100
AcDbEntity
  8
Livello 01
100
AcDbLine
 10
-7.535
 20
0.0
 30
40.0
 11
-7.535
 21
0.0
 31
37.8
  0
CIRCLE
  5
CD
330
C6
100
AcDbEntity
  8
Livello 01
100
AcDbCircle
 10
0.0
 20
0.0
 30
35.7
 40
8.9
  0
CIRCLE
  5
CE
330
C6
100
AcDbEntity
  8
Livello 01
100
AcDbCircle
 10
0.0
 20
0.0
 30
-37.8
 40
8.9
210
0.0
220
0.0
230
-1.0
  0
LINE
  5
CF
330
C6
100
AcDbEntity
  8
Livello 01
100
AcDbLine
 10
-8.9
 20
0.0
 30
37.8
 11
-8.9
 21
0.0
 31
35.7
  0
CIRCLE
  5
D0
330
C6
100
AcDbEntity
  8
Livello 01
100
AcDbCircle
 10
0.0
 20
0.0
 30
33.5
 40
7.535
  0
CIRCLE
  5
D1
330
C6
100
AcDbEntity
  8
Livello 01
100
AcDbCircle
 10
0.0
 20
0.0
 30
-35.7
 40
7.535
210
0.0
220
0.0
230
-1.0
  0
LINE
  5
D2
330
C6
100
AcDbEntity
  8
Livello 01
100
AcDbLine
 10
-7.535
 20
0.0
 30
35.7
 11
-7.535
 21
0.0
 31
33.5
  0
SPLINE
  5
D3
330
C6
100
AcDbEntity
  8
Livello 01
100
AcDbSpline
 70
     0
 71
     3
 72
    15
 73
    11
 74
     0
 42
0.0000000001
 43
0.0000000001
 40
0.0
 40
0.0
 40
0.0
 40
0.0
 40
2.833838437198669
 40
5.667676874397338
 40
8.501515311596018
 40
11.33535374879466
 40
14.1691921859934
 40
17.00303062319204
 40
19.83686906039068
 40
22.67070749758942
 40
22.67070749758942
 40
22.67070749758942
 40
22.67070749758942
 10
5.1
 20
7.29383301152419
 30
18.7510004003203
 10
5.32117176053717
 20
7.13918510870583
 30
17.8478968452601
 10
6.12680549591157
 20
6.53999368797818
 30
16.2641125357409
 10
7.47789597960761
 20
4.99779467847389
 30
14.3568633805805
 10
8.59115779931369
 20
2.79055189094496
 30
12.9678208027651
 10
9.05372517392712
 20
-0.0004386143350232
 30
12.4169443484271
 10
8.59394050931864
 20
-2.77848547953267
 30
12.9644030010085
 10
7.48471743557596
 20
-4.98853116654216
 30
14.3484423688822
 10
6.13108439280655
 20
-6.53676831014128
 30
16.2552511070544
 10
5.32039420277646
 20
-7.13972879329161
 30
17.8510718219219
 10
5.1
 20
-7.29383301152419
 30
18.7510004003203
  0
SPLINE
  5
D4
330
C6
100
AcDbEntity
  8
Livello 01
100
AcDbSpline
210
0.0
220
0.0
230
1.0
 70
    24
 71
     2
 72
     6
 73
     3
 74
     0
 42
0.0000000001
 43
0.0000000001
 40
0.0
 40
0.0
 40
0.0
 40
2.497999199359398
 40
2.497999199359398
 40
2.497999199359398
 10
5.1
 20
-7.29383301152419
 30
18.7510004003203
 10
5.1
 20
-7.29383301152419
 30
20.0
 10
5.1
 20
-7.29383301152419
 30
21.2489995996797
  0
SPLINE
  5
D5
330
C6
100
AcDbEntity
  8
Livello 01
100
AcDbSpline
 70
     0
 71
     3
 72
    15
 73
    11
 74
     0
 42
0.0000000001
 43
0.0000000001
 40
0.0
 40
0.0
 40
0.0
 40
0.0
 40
2.833785397770091
 40
5.667570795540172
 40
8.501356193310265
 40
11.33514159108034
 40
14.16892698885041
 40
17.00271238662057
 40
19.83649778439063
 40
22.67028318216069
 40
22.67028318216069
 40
22.67028318216069
 40
22.67028318216069
 10
5.1
 20
-7.29383301152419
 30
21.2489995996797
 10
5.32099995579837
 20
-7.13930523815854
 30
22.1514016299612
 10
6.12578446967005
 20
-6.54060045809048
 30
23.734126350354
 10
7.4757460800474
 20
-5.00120872899709
 30
25.6402939939945
 10
8.58922781105567
 20
-2.79386215194772
 30
27.0298476460129
 10
9.05246747907061
 20
-0.0179119303595691
 30
27.5815288324426
 10
8.60079827288176
 20
2.76011933444908
 30
27.0439119433458
 10
7.48896273379487
 20
4.98385069278833
 30
25.657248944053
 10
6.13194492731485
 20
6.53613118673856
 30
23.7467039747209
 10
5.32029829232926
 20
7.13979585587446
 30
22.1485365500257
 10
5.1
 20
7.29383301152419
 30
21.2489995996797
  0
SPLINE
  5
D6
330
C6
100
AcDbEntity
  8
Livello 01
100
AcDbSpline
210
0.0
220
0.0
230
1.0
 70
    24
 71
     2
 72
     6
 73
     3
 74
     0
 42
0.0000000001
 43
0.0000000001
 40
0.0
 40
0.0
 40
0.0
 40
2.497999199359398
 40
2.497999199359398
 40
2.497999199359398
 10
5.1
 20
7.29383301152419
 30
21.2489995996797
 10
5.1
 20
7.29383301152419
 30
20.0
 10
5.1
 20
7.29383301152419
 30
18.7510004003203
  0
CIRCLE
  5
D7
330
C6
100
AcDbEntity
  8
Livello 01
100
AcDbCircle
 10
0.0
 20
0.0
 30
8.09999999999999
 40
8.9
  0
CIRCLE
  5
D8
330
C6
100
AcDbEntity
  8
Livello 01
100
AcDbCircle
 10
0.0
 20
0.0
 30
-33.5
 40
8.9
210
0.0
220
0.0
230
-1.0
  0
LINE
  5
D9
330
C6
100
AcDbEntity
  8
Livello 01
100
AcDbLine
 10
-8.9
 20
0.0
 30
33.49999999999999
 11
-8.9
 21
0.0
 31
8.09999999999999
  0
CIRCLE
  5
DA
330
C6
100
AcDbEntity
  8
Livello 01
100
AcDbCircle
 10
0.0
 20
0.0
 30
5.89999999999999
 40
7.535
  0
CIRCLE
  5
DB
330
C6
100
AcDbEntity
  8
Livello 01
100
AcDbCircle
 10
0.0
 20
0.0
 30
-8.09999999999999
 40
7.535
210
0.0
220
0.0
230
-1.0
  0
LINE
  5
DC
330
C6
100
AcDbEntity
  8
Livello 01
100
AcDbLine
 10
-7.535
 20
0.0
 30
8.09999999999999
 11
-7.535
 21
0.0
 31
5.89999999999999
  0
CIRCLE
  5
DD
330
C6
100
AcDbEntity
  8
Livello 01
100
AcDbCircle
 10
0.0
 20
0.0
 30
4.6
 40
8.9
  0
CIRCLE
  5
DE
330
C6
100
AcDbEntity
  8
Livello 01
100
AcDbCircle
 10
0.0
 20
0.0
 30
-5.89999999999999
 40
8.9
210
0.0
220
0.0
230
-1.0
  0
LINE
  5
DF
330
C6
100
AcDbEntity
  8
Livello 01
100
AcDbLine
 10
-8.9
 20
0.0
 30
5.899999999999989
 11
-8.9
 21
0.0
 31
4.6
  0
CIRCLE
  5
E0
330
C6
100
AcDbEntity
  8
Livello 01
100
AcDbCircle
 10
0.0
 20
0.0
 30
2.4
 40
7.53499999999999
  0
CIRCLE
  5
E1
330
C6
100
AcDbEntity
  8
Livello 01
100
AcDbCircle
 10
0.0
 20
0.0
 30
-4.6
 40
7.535
210
0.0
220
0.0
230
-1.0
  0
LINE
  5
E2
330
C6
100
AcDbEntity
  8
Livello 01
100
AcDbLine
 10
-7.53499999999999
 20
0.0
 30
4.6
 11
-7.53499999999999
 21
0.0
 31
2.4
  0
CIRCLE
  5
E3
330
C6
100
AcDbEntity
  8
Livello 01
100
AcDbCircle
 10
0.0
 20
0.0
 30
-2.4
 40
8.9
210
0.0
220
0.0
230
-1.0
  0
LINE
  5
E4
330
C6
100
AcDbEntity
  8
Livello 01
100
AcDbLine
 10
-8.9
 20
0.0
 30
2.4
 11
-8.9
 21
0.0
 31
0.5000000000000004
  0
SPLINE
  5
E5
330
C6
100
AcDbEntity
  8
Livello 01
100
AcDbSpline
210
0.0
220
0.0
230
1.0
 70
    24
 71
     2
 72
     6
 73
     3
 74
     0
 42
0.0000000001
 43
0.0000000001
 40
-7.311695357439397
 40
-7.311695357439397
 40
-7.311695357439397
 40
0.0
 40
0.0
 40
0.0
 10
-1.1
 20
-4.05339363990225
 30
16.3441523212803
 10
-1.1
 20
-4.05339363990225
 30
20.0
 10
-1.1
 20
-4.05339363990225
 30
23.6558476787197
  0
SPLINE
  5
E6
330
C6
100
AcDbEntity
  8
Livello 01
100
AcDbSpline
 70
     0
 71
     3
 72
     9
 73
     5
 74
     0
 42
0.0000000001
 43
0.0000000001
 40
-16.53414978229039
 40
-16.53414978229039
 40
-16.53414978229039
 40
-16.53414978229039
 40
-15.50076542089729
 40
-15.38152629031774
 40
-15.38152629031774
 40
-15.38152629031774
 40
-15.38152629031774
 10
-1.1
 20
4.05339363990225
 30
16.3441523212803
 10
-0.784619475308339
 20
4.13898083127339
 30
16.439046476521
 10
-0.4142820737780943
 20
4.195214826131251
 30
16.50810428689068
 10
-0.0388567370540246
 20
4.199906959552999
 30
16.51339860091991
 10
0.0000000000000035
 20
4.199849215964229
 30
16.51328561731093
  0
SPLINE
  5
E7
330
C6
100
AcDbEntity
  8
Livello 01
100
AcDbSpline
210
0.0
220
0.0
230
1.0
 70
    24
 71
     2
 72
     6
 73
     3
 74
     0
 42
0.0000000001
 43
0.0000000001
 40
-7.311695357439397
 40
-7.311695357439397
 40
-7.311695357439397
 40
0.0
 40
0.0
 40
0.0
 10
-1.1
 20
4.05339363990225
 30
23.6558476787197
 10
-1.1
 20
4.05339363990225
 30
20.0
 10
-1.1
 20
4.05339363990225
 30
16.3441523212803
  0
SPLINE
  5
E8
330
C6
100
AcDbEntity
  8
Livello 01
100
AcDbSpline
 70
     0
 71
     3
 72
     9
 73
     5
 74
     0
 42
0.0000000001
 43
0.0000000001
 40
-1.155344446288495
 40
-1.155344446288495
 40
-1.155344446288495
 40
-1.155344446288495
 40
-1.033384361393149
 40
0.0
 40
0.0
 40
0.0
 40
0.0
 10
0.0000000000000043
 20
4.199797913952145
 30
23.48683685472326
 10
-0.039640129426317
 20
4.199874801608737
 30
23.48667789012994
 10
-0.4149820742793764
 20
4.195237855500857
 30
23.49171269027143
 10
-0.785243996831184
 20
4.13881135015801
 30
23.561141434392
 10
-1.1
 20
4.05339363990225
 30
23.6558476787197
  0
CIRCLE
  5
E9
330
C6
100
AcDbEntity
  8
Livello 01
100
AcDbCircle
 10
-0.0000000000000033
 20
0.0
 30
0.0
 40
4.2
210
0.0
220
0.0
230
-1.0
  0
LINE
  5
EA
330
C6
100
AcDbEntity
  8
Livello 01
100
AcDbLine
 10
0.0000000000000033
 20
4.2
 30
23.48683685472326
 11
0.0000000000000033
 21
4.2
 31
32.47638540008421
  0
LINE
  5
EB
330
C6
100
AcDbEntity
  8
Livello 01
100
AcDbLine
 10
0.0000000000000033
 20
4.2
 30
0.0000000000000009
 11
0.0000000000000033
 21
4.2
 31
16.51328561731092
  0
LINE
  5
EC
330
C6
100
AcDbEntity
  8
Livello 01
100
AcDbLine
 10
0.0
 20
0.0
 30
34.99999999999998
 11
0.0
 21
-4.2
 31
32.4763854000842
  0
ARC
  5
ED
330
C6
100
AcDbEntity
  8
Livello 01
100
AcDbCircle
 10
0.0
 20
0.0
 30
32.4763854000842
 40
4.2
100
AcDbArc
 50
270.0
 51
89.99999999999991
  0
ARC
  5
EE
330
C6
100
AcDbEntity
  8
Livello 01
100
AcDbCircle
 10
0.0
 20
0.0
 30
32.4763854000842
 40
4.2
100
AcDbArc
 50
89.99999999999991
 51
270.0
  0
ARC
  5
EF
330
C6
100
AcDbEntity
  8
Livello 01
100
AcDbCircle
 10
0.0
 20
0.0
 30
-0.5
 40
8.9
210
0.0
220
0.0
230
-1.0
100
AcDbArc
 50
180.0
 51
0.000000000000007
  0
CIRCLE
  5
F0
330
C6
100
AcDbEntity
  8
Livello 01
100
AcDbCircle
 10
0.0
 20
0.0
 30
0.0
 40
8.4
  0
LINE
  5
F1
330
C6
100
AcDbEntity
  8
Livello 01
100
AcDbLine
 10
8.4
 20
0.0
 30
0.0000000000000009
 11
8.9
 21
0.0
 31
0.4999999999999991
  0
ARC
  5
F2
330
C6
100
AcDbEntity
  8
Livello 01
100
AcDbCircle
 10
0.0
 20
0.0
 30
-0.5
 40
8.9
210
0.0
220
0.0
230
-1.0
100
AcDbArc
 50
0.000000000000007
 51
180.0
  0
ARC
  5
F3
330
C6
100
AcDbEntity
  8
Livello 01
100
AcDbCircle
 10
0.0
 20
20.0
 30
-5.1
 40
7.400000000000005
210
-1.0
220
0.0
230
0.0
100
AcDbArc
 50
189.7171100649312
 51
350.2828899350688
  0
ARC
  5
F4
330
C6
100
AcDbEntity
  8
Livello 01
100
AcDbCircle
 10
0.0
 20
20.0
 30
-5.1
 40
7.400000000000005
210
-1.0
220
0.0
230
0.0
100
AcDbArc
 50
9.717110064931207
 51
170.2828899350688
  0
CIRCLE
  5
F5
330
C6
100
AcDbEntity
  8
Livello 01
100
AcDbCircle
 10
0.0
 20
20.0
 30
5.1
 40
5.4585
210
1.0
220
0.0
230
0.0
  0
ARC
  5
F6
330
C6
100
AcDbEntity
  8
Livello 01
100
AcDbCircle
 10
-0.0000000000000269
 20
20.0
 30
1.1
 40
5.458500000000036
210
-1.0
220
0.0
230
0.0
100
AcDbArc
 50
317.9519827922247
 51
42.04801720777527
  0
ARC
  5
F7
330
C6
100
AcDbEntity
  8
Livello 01
100
AcDbCircle
 10
0.0000000000000269
 20
20.0
 30
1.1
 40
5.458500000000036
210
-1.0
220
0.0
230
0.0
100
AcDbArc
 50
137.9519827922248
 51
222.0480172077752
  0
SPLINE
  5
F8
330
C6
100
AcDbEntity
  8
Livello 01
100
AcDbSpline
 70
     0
 71
     3
 72
    12
 73
     8
 74
     0
 42
0.0000000001
 43
0.0000000001
 40
-8.253412005180314
 40
-8.253412005180314
 40
-8.253412005180314
 40
-8.253412005180314
 40
-6.200306168358897
 40
-4.133537445572599
 40
-3.100153084179397
 40
-2.066768722786299
 40
-1.152623491972651
 40
-1.152623491972651
 40
-1.152623491972651
 40
-1.152623491972651
 10
4.20000728724477
 20
0.0000000000000021
 30
14.54149184781307
 10
4.200298677530322
 20
0.6645826760544176
 30
14.54115529394942
 10
3.86238250036251
 20
1.997049647830278
 30
14.80543568354844
 10
2.851666573462151
 20
3.18638629772784
 30
15.5263226774225
 10
1.80640021594543
 20
3.82959480082699
 30
16.0965956571594
 10
0.9349086952589661
 20
4.130452577947023
 30
16.42784583313436
 10
0.2978946650338226
 20
4.199406525498208
 30
16.51241942995437
 10
0.0000000000000035
 20
4.19984921596423
 30
16.51328561731093
  0
SPLINE
  5
F9
330
C6
100
AcDbEntity
  8
Livello 01
100
AcDbSpline
 70
     0
 71
     3
 72
    13
 73
     9
 74
     0
 42
0.0000000001
 43
0.0000000001
 40
-16.53414978229039
 40
-16.53414978229039
 40
-16.53414978229039
 40
-16.53414978229039
 40
-15.50076542089724
 40
-14.46738105950409
 40
-12.40061233671778
 40
-10.33384361393149
 40
-8.267074891145185
 40
-8.253412005180314
 40
-8.253412005180314
 40
-8.253412005180314
 40
-8.253412005180314
 10
-1.1
 20
-4.05339363990225
 30
16.3441523212803
 10
-0.785243996831184
 20
-4.13881135015801
 30
16.438858565608
 10
-0.1228910827481808
 20
-4.23975140898927
 30
16.5630580260128
 10
1.2343276982184
 20
-4.11017008906048
 30
16.3993254369434
 10
2.64324765137008
 20
-3.42464336106601
 30
15.6693078628096
 10
3.849727716542598
 20
-2.02015516597257
 30
14.8161860933719
 10
4.198572556072236
 20
-0.6778543183329254
 30
14.54272549761222
 10
4.20000534811812
 20
-0.004422625056297
 30
14.5414940874916
 10
4.20000728724477
 20
0.0000000000000021
 30
14.54149184781307
  0
LINE
  5
FA
330
C6
100
AcDbEntity
  8
Livello 01
100
AcDbLine
 10
5.100000000000001
 20
0.0
 30
14.5415
 11
4.200007287244769
 21
0.0
 31
14.5415
  0
SPLINE
  5
FB
330
C6
100
AcDbEntity
  8
Livello 01
100
AcDbSpline
 70
     0
 71
     3
 72
    17
 73
    13
 74
     0
 42
0.0000000001
 43
0.0000000001
 40
0.0
 40
0.0
 40
0.0
 40
0.0
 40
1.033384361393098
 40
2.066768722786299
 40
3.100153084179395
 40
4.133537445572597
 40
6.200306168358893
 40
8.267074891145182
 40
10.33384361393148
 40
12.40061233671778
 40
14.46738105950409
 40
15.37880533600189
 40
15.37880533600189
 40
15.37880533600189
 40
15.37880533600189
 10
-1.1
 20
-4.05339363990225
 30
23.6558476787197
 10
-0.784619475308341
 20
-4.13898083127339
 30
23.560953523479
 10
-0.1205676286374732
 20
-4.23981398497794
 30
23.4371259913055
 10
0.900048282361567
 20
-4.14248714866268
 30
23.5589038739681
 10
1.80640021594543
 20
-3.82959480082699
 30
23.9034043428406
 10
2.851666573462151
 20
-3.18638629772784
 30
24.4736773225775
 10
3.865062221421313
 20
-1.99389634789513
 30
25.1964756112151
 10
4.371271080119135
 20
0.0133371779136161
 30
25.5926534328497
 10
3.849727716542598
 20
2.02015516597257
 30
25.1838139066281
 10
2.64324765137008
 20
3.42464336106601
 30
24.3306921371904
 10
1.267583861852514
 20
4.093988907872191
 30
23.61790590671588
 10
0.2962360702984657
 20
4.199223322053163
 30
23.48802481871645
 10
0.0000000000000041
 20
4.199797913952145
 30
23.48683685472326
  0
LINE
  5
FC
330
C6
100
AcDbEntity
  8
Livello 01
100
AcDbLine
 10
9.975
 20
-0.0000000000000009
 30
43.0
 11
-9.975000000000001
 21
-0.0000000000000009
 31
43.0
  0
LINE
  5
FD
330
C6
100
AcDbEntity
  8
Livello 01
100
AcDbLine
 10
0.0000000000000009
 20
-9.974999999999998
 30
43.0
 11
0.0000000000000009
 21
9.975000000000001
 31
43.0
  0
CIRCLE
  5
FE
330
C6
100
AcDbEntity
  8
Livello 01
100
AcDbCircle
 10
0.0
 20
0.0
 30
-41.50000000000001
 40
9.975
210
0.0
220
0.0
230
-1.0
  0
LINE
  5
FF
330
C6
100
AcDbEntity
  8
Livello 01
100
AcDbLine
 10
0.0
 20
9.975
 30
43.0
 11
0.0
 21
9.975
 31
40.0
  0
LINE
  5
100
330
C6
100
AcDbEntity
  8
Livello 01
100
AcDbLine
 10
9.975
 20
0.0
 30
43.0
 11
9.975
 21
0.0
 31
40.0
  0
LINE
  5
101
330
C6
100
AcDbEntity
  8
Livello 01
100
AcDbLine
 10
0.0
 20
-9.975
 30
43.0
 11
0.0
 21
-9.975
 31
40.0
  0
LINE
  5
102
330
C6
100
AcDbEntity
  8
Livello 01
100
AcDbLine
 10
-9.975
 20
-0.0000000000000009
 30
40.0
 11
-7.535000000000001
 21
-0.0000000000000009
 31
40.0
  0
LINE
  5
103
330
C6
100
AcDbEntity
  8
Livello 01
100
AcDbLine
 10
7.534999999999997
 20
-0.0000000000000009
 30
40.0
 11
9.975000000000003
 21
-0.0000000000000009
 31
40.0
  0
LINE
  5
104
330
C6
100
AcDbEntity
  8
Livello 01
100
AcDbLine
 10
0.0
 20
-9.975
 30
40.0
 11
0.0
 21
-7.534999999999999
 31
40.0
  0
LINE
  5
105
330
C6
100
AcDbEntity
  8
Livello 01
100
AcDbLine
 10
0.0
 20
7.534999999999999
 30
40.0
 11
0.0
 21
9.974999999999998
 31
40.0
  0
CIRCLE
  5
106
330
C6
100
AcDbEntity
  8
Livello 01
100
AcDbCircle
 10
0.0
 20
0.0
 30
-38.89999999999999
 40
7.535
210
0.0
220
0.0
230
-1.0
  0
LINE
  5
107
330
C6
100
AcDbEntity
  8
Livello 01
100
AcDbLine
 10
0.0
 20
7.535
 30
39.99999999999999
 11
0.0
 21
7.535
 31
37.8
  0
LINE
  5
108
330
C6
100
AcDbEntity
  8
Livello 01
100
AcDbLine
 10
7.535
 20
0.0
 30
39.99999999999999
 11
7.535
 21
0.0
 31
37.8
  0
LINE
  5
109
330
C6
100
AcDbEntity
  8
Livello 01
100
AcDbLine
 10
0.0
 20
-7.535
 30
39.99999999999999
 11
0.0
 21
-7.535
 31
37.8
  0
LINE
  5
10A
330
C6
100
AcDbEntity
  8
Livello 01
100
AcDbLine
 10
8.900000000000002
 20
-0.0000000000000009
 30
37.8
 11
7.535
 21
-0.0000000000000009
 31
37.8
  0
LINE
  5
10B
330
C6
100
AcDbEntity
  8
Livello 01
100
AcDbLine
 10
-7.535
 20
-0.0000000000000009
 30
37.8
 11
-8.899999999999999
 21
-0.0000000000000009
 31
37.8
  0
LINE
  5
10C
330
C6
100
AcDbEntity
  8
Livello 01
100
AcDbLine
 10
0.0
 20
-8.899999999999995
 30
37.8
 11
0.0
 21
-7.534999999999999
 31
37.8
  0
LINE
  5
10D
330
C6
100
AcDbEntity
  8
Livello 01
100
AcDbLine
 10
0.0
 20
7.535000000000001
 30
37.8
 11
0.0
 21
8.900000000000002
 31
37.8
  0
CIRCLE
  5
10E
330
C6
100
AcDbEntity
  8
Livello 01
100
AcDbCircle
 10
0.0
 20
0.0
 30
-36.75
 40
8.9
210
0.0
220
0.0
230
-1.0
  0
LINE
  5
10F
330
C6
100
AcDbEntity
  8
Livello 01
100
AcDbLine
 10
0.0
 20
8.9
 30
37.8
 11
0.0
 21
8.9
 31
35.7
  0
LINE
  5
110
330
C6
100
AcDbEntity
  8
Livello 01
100
AcDbLine
 10
8.9
 20
0.0
 30
37.8
 11
8.9
 21
0.0
 31
35.7
  0
LINE
  5
111
330
C6
100
AcDbEntity
  8
Livello 01
100
AcDbLine
 10
0.0
 20
-8.9
 30
37.8
 11
0.0
 21
-8.9
 31
35.7
  0
LINE
  5
112
330
C6
100
AcDbEntity
  8
Livello 01
100
AcDbLine
 10
-8.900000000000002
 20
-0.0000000000000009
 30
35.7
 11
-7.535000000000001
 21
-0.0000000000000009
 31
35.7
  0
LINE
  5
113
330
C6
100
AcDbEntity
  8
Livello 01
100
AcDbLine
 10
7.534999999999996
 20
-0.0000000000000009
 30
35.7
 11
8.9
 21
-0.0000000000000009
 31
35.7
  0
LINE
  5
114
330
C6
100
AcDbEntity
  8
Livello 01
100
AcDbLine
 10
0.0
 20
-8.899999999999999
 30
35.7
 11
0.0
 21
-7.534999999999999
 31
35.7
  0
LINE
  5
115
330
C6
100
AcDbEntity
  8
Livello 01
100
AcDbLine
 10
0.0
 20
7.535000000000001
 30
35.7
 11
0.0
 21
8.900000000000002
 31
35.7
  0
CIRCLE
  5
116
330
C6
100
AcDbEntity
  8
Livello 01
100
AcDbCircle
 10
0.0
 20
0.0
 30
-34.6
 40
7.535
210
0.0
220
0.0
230
-1.0
  0
LINE
  5
117
330
C6
100
AcDbEntity
  8
Livello 01
100
AcDbLine
 10
0.0
 20
7.535
 30
35.7
 11
0.0
 21
7.535
 31
33.5
  0
LINE
  5
118
330
C6
100
AcDbEntity
  8
Livello 01
100
AcDbLine
 10
7.535
 20
0.0
 30
35.7
 11
7.535
 21
0.0
 31
33.5
  0
LINE
  5
119
330
C6
100
AcDbEntity
  8
Livello 01
100
AcDbLine
 10
0.0
 20
-7.535
 30
35.7
 11
0.0
 21
-7.535
 31
33.5
  0
LINE
  5
11A
330
C6
100
AcDbEntity
  8
Livello 01
100
AcDbLine
 10
8.900000000000002
 20
-0.0000000000000009
 30
33.5
 11
7.535
 21
-0.0000000000000009
 31
33.5
  0
LINE
  5
11B
330
C6
100
AcDbEntity
  8
Livello 01
100
AcDbLine
 10
-7.535
 20
-0.0000000000000009
 30
33.5
 11
-8.899999999999999
 21
-0.0000000000000009
 31
33.5
  0
LINE
  5
11C
330
C6
100
AcDbEntity
  8
Livello 01
100
AcDbLine
 10
0.0
 20
-8.899999999999995
 30
33.5
 11
0.0
 21
-7.534999999999999
 31
33.5
  0
LINE
  5
11D
330
C6
100
AcDbEntity
  8
Livello 01
100
AcDbLine
 10
0.0
 20
7.535000000000001
 30
33.5
 11
0.0
 21
8.900000000000002
 31
33.5
  0
ARC
  5
11E
330
C6
100
AcDbEntity
  8
Livello 01
100
AcDbCircle
 10
0.0
 20
0.0
 30
-20.80000000000007
 40
8.9
210
0.0
220
0.0
230
-1.0
100
AcDbArc
 50
0.0
 51
124.962047528995
  0
ARC
  5
11F
330
C6
100
AcDbEntity
  8
Livello 01
100
AcDbCircle
 10
0.0
 20
0.0
 30
-20.80000000000007
 40
8.9
210
0.0
220
0.0
230
-1.0
100
AcDbArc
 50
235.037952471005
 51
0.0
  0
LINE
  5
120
330
C6
100
AcDbEntity
  8
Livello 01
100
AcDbLine
 10
0.0
 20
8.9
 30
33.5
 11
0.0
 21
8.9
 31
8.099999999999987
  0
LINE
  5
121
330
C6
100
AcDbEntity
  8
Livello 01
100
AcDbLine
 10
8.9
 20
0.0
 30
33.5
 11
8.9
 21
0.0
 31
27.40000345531877
  0
LINE
  5
122
330
C6
100
AcDbEntity
  8
Livello 01
100
AcDbLine
 10
8.9
 20
0.0
 30
12.59999933709158
 11
8.9
 21
0.0
 31
8.099999999999987
  0
LINE
  5
123
330
C6
100
AcDbEntity
  8
Livello 01
100
AcDbLine
 10
0.0
 20
-8.9
 30
33.5
 11
0.0
 21
-8.9
 31
8.099999999999987
  0
LINE
  5
124
330
C6
100
AcDbEntity
  8
Livello 01
100
AcDbLine
 10
-8.900000000000002
 20
-0.0000000000000009
 30
8.09999999999999
 11
-7.535000000000001
 21
-0.0000000000000009
 31
8.09999999999999
  0
LINE
  5
125
330
C6
100
AcDbEntity
  8
Livello 01
100
AcDbLine
 10
7.534999999999996
 20
-0.0000000000000009
 30
8.09999999999999
 11
8.9
 21
-0.0000000000000009
 31
8.09999999999999
  0
LINE
  5
126
330
C6
100
AcDbEntity
  8
Livello 01
100
AcDbLine
 10
0.0
 20
-8.899999999999999
 30
8.09999999999999
 11
0.0
 21
-7.534999999999999
 31
8.09999999999999
  0
LINE
  5
127
330
C6
100
AcDbEntity
  8
Livello 01
100
AcDbLine
 10
0.0
 20
7.535000000000001
 30
8.09999999999999
 11
0.0
 21
8.900000000000002
 31
8.09999999999999
  0
CIRCLE
  5
128
330
C6
100
AcDbEntity
  8
Livello 01
100
AcDbCircle
 10
0.0
 20
0.0
 30
-6.999999999999991
 40
7.535
210
0.0
220
0.0
230
-1.0
  0
LINE
  5
129
330
C6
100
AcDbEntity
  8
Livello 01
100
AcDbLine
 10
0.0
 20
7.535
 30
8.099999999999993
 11
0.0
 21
7.535
 31
5.899999999999989
  0
LINE
  5
12A
330
C6
100
AcDbEntity
  8
Livello 01
100
AcDbLine
 10
7.535
 20
0.0
 30
8.099999999999993
 11
7.535
 21
0.0
 31
5.899999999999989
  0
LINE
  5
12B
330
C6
100
AcDbEntity
  8
Livello 01
100
AcDbLine
 10
0.0
 20
-7.535
 30
8.099999999999993
 11
0.0
 21
-7.535
 31
5.899999999999989
  0
LINE
  5
12C
330
C6
100
AcDbEntity
  8
Livello 01
100
AcDbLine
 10
8.900000000000002
 20
-0.0000000000000009
 30
5.89999999999999
 11
7.535
 21
-0.0000000000000009
 31
5.89999999999999
  0
LINE
  5
12D
330
C6
100
AcDbEntity
  8
Livello 01
100
AcDbLine
 10
-7.535
 20
-0.0000000000000009
 30
5.89999999999999
 11
-8.899999999999999
 21
-0.0000000000000009
 31
5.89999999999999
  0
LINE
  5
12E
330
C6
100
AcDbEntity
  8
Livello 01
100
AcDbLine
 10
0.0
 20
-8.899999999999995
 30
5.89999999999999
 11
0.0
 21
-7.534999999999999
 31
5.89999999999999
  0
LINE
  5
12F
330
C6
100
AcDbEntity
  8
Livello 01
100
AcDbLine
 10
0.0
 20
7.535000000000001
 30
5.89999999999999
 11
0.0
 21
8.900000000000002
 31
5.89999999999999
  0
CIRCLE
  5
130
330
C6
100
AcDbEntity
  8
Livello 01
100
AcDbCircle
 10
0.0
 20
0.0
 30
-5.249999999999996
 40
8.9
210
0.0
220
0.0
230
-1.0
  0
LINE
  5
131
330
C6
100
AcDbEntity
  8
Livello 01
100
AcDbLine
 10
0.0
 20
8.9
 30
5.899999999999991
 11
0.0
 21
8.9
 31
4.6
  0
LINE
  5
132
330
C6
100
AcDbEntity
  8
Livello 01
100
AcDbLine
 10
8.9
 20
0.0
 30
5.899999999999991
 11
8.9
 21
0.0
 31
4.6
  0
LINE
  5
133
330
C6
100
AcDbEntity
  8
Livello 01
100
AcDbLine
 10
0.0
 20
-8.9
 30
5.899999999999991
 11
0.0
 21
-8.9
 31
4.6
  0
LINE
  5
134
330
C6
100
AcDbEntity
  8
Livello 01
100
AcDbLine
 10
-8.900000000000002
 20
-0.0000000000000009
 30
4.6
 11
-7.535000000000001
 21
-0.0000000000000009
 31
4.6
  0
LINE
  5
135
330
C6
100
AcDbEntity
  8
Livello 01
100
AcDbLine
 10
7.534999999999996
 20
-0.0000000000000009
 30
4.6
 11
8.9
 21
-0.0000000000000009
 31
4.6
  0
LINE
  5
136
330
C6
100
AcDbEntity
  8
Livello 01
100
AcDbLine
 10
0.0
 20
-8.899999999999999
 30
4.6
 11
0.0
 21
-7.534999999999999
 31
4.6
  0
LINE
  5
137
330
C6
100
AcDbEntity
  8
Livello 01
100
AcDbLine
 10
0.0
 20
7.535000000000001
 30
4.6
 11
0.0
 21
8.900000000000002
 31
4.6
  0
CIRCLE
  5
138
330
C6
100
AcDbEntity
  8
Livello 01
100
AcDbCircle
 10
0.0
 20
0.0
 30
-3.5
 40
7.53499999999999
210
0.0
220
0.0
230
-1.0
  0
LINE
  5
139
330
C6
100
AcDbEntity
  8
Livello 01
100
AcDbLine
 10
0.0
 20
7.53499999999999
 30
4.600000000000001
 11
0.0
 21
7.53499999999999
 31
2.4
  0
LINE
  5
13A
330
C6
100
AcDbEntity
  8
Livello 01
100
AcDbLine
 10
7.53499999999999
 20
0.0
 30
4.600000000000001
 11
7.53499999999999
 21
0.0
 31
2.4
  0
LINE
  5
13B
330
C6
100
AcDbEntity
  8
Livello 01
100
AcDbLine
 10
0.0
 20
-7.53499999999999
 30
4.600000000000001
 11
0.0
 21
-7.53499999999999
 31
2.4
  0
LINE
  5
13C
330
C6
100
AcDbEntity
  8
Livello 01
100
AcDbLine
 10
8.900000000000002
 20
-0.0000000000000009
 30
2.4
 11
7.53499999999999
 21
-0.0000000000000009
 31
2.4
  0
LINE
  5
13D
330
C6
100
AcDbEntity
  8
Livello 01
100
AcDbLine
 10
-7.534999999999991
 20
-0.0000000000000009
 30
2.4
 11
-8.900000000000002
 21
-0.0000000000000009
 31
2.4
  0
LINE
  5
13E
330
C6
100
AcDbEntity
  8
Livello 01
100
AcDbLine
 10
0.0
 20
-8.900000000000002
 30
2.4
 11
0.0
 21
-7.534999999999991
 31
2.4
  0
LINE
  5
13F
330
C6
100
AcDbEntity
  8
Livello 01
100
AcDbLine
 10
0.0
 20
7.534999999999991
 30
2.4
 11
0.0
 21
8.900000000000002
 31
2.4
  0
CIRCLE
  5
140
330
C6
100
AcDbEntity
  8
Livello 01
100
AcDbCircle
 10
0.0
 20
0.0
 30
-1.45
 40
8.9
210
0.0
220
0.0
230
-1.0
  0
LINE
  5
141
330
C6
100
AcDbEntity
  8
Livello 01
100
AcDbLine
 10
0.0
 20
8.9
 30
2.4
 11
0.0
 21
8.9
 31
0.5000000000000008
  0
LINE
  5
142
330
C6
100
AcDbEntity
  8
Livello 01
100
AcDbLine
 10
8.9
 20
0.0
 30
2.4
 11
8.9
 21
0.0
 31
0.5000000000000008
  0
LINE
  5
143
330
C6
100
AcDbEntity
  8
Livello 01
100
AcDbLine
 10
0.0
 20
-8.9
 30
2.4
 11
0.0
 21
-8.9
 31
0.5000000000000008
  0
LINE
  5
144
330
C6
100
AcDbEntity
  8
Livello 01
100
AcDbLine
 10
-8.4
 20
-0.0000000000000009
 30
0.0
 11
-4.199999999999997
 21
-0.0000000000000009
 31
0.0
  0
LINE
  5
145
330
C6
100
AcDbEntity
  8
Livello 01
100
AcDbLine
 10
4.200000000000006
 20
-0.0000000000000009
 30
0.0
 11
8.399999999999997
 21
-0.0000000000000009
 31
0.0
  0
LINE
  5
146
330
C6
100
AcDbEntity
  8
Livello 01
100
AcDbLine
 10
0.0
 20
-8.399999999999997
 30
0.0
 11
0.0
 21
-4.200000000000001
 31
0.0
  0
LINE
  5
147
330
C6
100
AcDbEntity
  8
Livello 01
100
AcDbLine
 10
0.0
 20
4.2
 30
0.0
 11
0.0
 21
8.399999999999999
 31
0.0
  0
ARC
  5
148
330
C6
100
AcDbEntity
  8
Livello 01
100
AcDbCircle
 10
0.0000000000000033
 20
0.0
 30
16.2381927000421
 40
4.2
100
AcDbArc
 50
90.0
 51
289.7807554628964
  0
ARC
  5
149
330
C6
100
AcDbEntity
  8
Livello 01
100
AcDbCircle
 10
0.0000000000000033
 20
0.0
 30
16.2381927000421
 40
4.2
100
AcDbArc
 50
70.32573880157798
 51
89.99999999999999
  0
LINE
  5
14A
330
C6
100
AcDbEntity
  8
Livello 01
100
AcDbLine
 10
-4.199999999999997
 20
0.0
 30
0.0000000000000004
 11
-4.199999999999997
 21
0.0
 31
32.4763854000842
  0
LINE
  5
14B
330
C6
100
AcDbEntity
  8
Livello 01
100
AcDbLine
 10
0.0000000000000033
 20
-4.2
 30
0.0
 11
0.0000000000000033
 21
-4.2
 31
16.51340472605854
  0
LINE
  5
14C
330
C6
100
AcDbEntity
  8
Livello 01
100
AcDbLine
 10
0.0000000000000033
 20
-4.2
 30
23.48647453898526
 11
0.0000000000000033
 21
-4.2
 31
32.4763854000842
  0
LINE
  5
14D
330
C6
100
AcDbEntity
  8
Livello 01
100
AcDbLine
 10
4.200000000000004
 20
0.0
 30
0.0000000000000004
 11
4.200000000000004
 21
0.0
 31
14.54081949569585
  0
LINE
  5
14E
330
C6
100
AcDbEntity
  8
Livello 01
100
AcDbLine
 10
4.200000000000004
 20
0.0
 30
25.45920476827916
 11
4.200000000000004
 21
0.0
 31
32.4763854000842
  0
CIRCLE
  5
14F
330
C6
100
AcDbEntity
  8
Livello 01
100
AcDbCircle
 10
0.0
 20
0.0
 30
-33.5820119700463
 40
2.359928384470515
210
0.0
220
0.0
230
-1.0
  0
LINE
  5
150
330
C6
100
AcDbEntity
  8
Livello 01
100
AcDbLine
 10
0.0
 20
0.0
 30
34.99999999999998
 11
-4.2
 21
0.0
 31
32.4763854000842
  0
LINE
  5
151
330
C6
100
AcDbEntity
  8
Livello 01
100
AcDbLine
 10
0.0
 20
0.0
 30
34.99999999999998
 11
0.0
 21
4.2
 31
32.4763854000842
  0
LINE
  5
152
330
C6
100
AcDbEntity
  8
Livello 01
100
AcDbLine
 10
0.0
 20
0.0
 30
34.99999999999998
 11
4.2
 21
0.0
 31
32.4763854000842
  0
LINE
  5
153
330
C6
100
AcDbEntity
  8
Livello 01
100
AcDbLine
 10
0.0
 20
8.4
 30
0.0000000000000009
 11
0.0
 21
8.9
 31
0.4999999999999997
  0
LINE
  5
154
330
C6
100
AcDbEntity
  8
Livello 01
100
AcDbLine
 10
-8.4
 20
0.0
 30
0.0000000000000009
 11
-8.9
 21
0.0
 31
0.4999999999999997
  0
LINE
  5
155
330
C6
100
AcDbEntity
  8
Livello 01
100
AcDbLine
 10
0.0
 20
-8.4
 30
0.0000000000000009
 11
0.0
 21
-8.9
 31
0.4999999999999997
  0
LINE
  5
156
330
C6
100
AcDbEntity
  8
Livello 01
100
AcDbLine
 10
5.1
 20
0.0
 30
12.59999999999999
 11
5.1
 21
0.0
 31
14.5415
  0
LINE
  5
157
330
C6
100
AcDbEntity
  8
Livello 01
100
AcDbLine
 10
5.1
 20
0.0
 30
25.4585
 11
5.1
 21
0.0
 31
27.40000000000001
  0
LINE
  5
158
330
C6
100
AcDbEntity
  8
Livello 01
100
AcDbLine
 10
5.1
 20
-7.293833011524189
 30
20.0
 11
5.1
 21
-5.458499999999999
 31
20.0
  0
LINE
  5
159
330
C6
100
AcDbEntity
  8
Livello 01
100
AcDbLine
 10
5.1
 20
5.458500000000001
 30
20.0
 11
5.1
 21
7.293833011524191
 31
20.0
  0
ARC
  5
15A
330
C6
100
AcDbEntity
  8
Livello 01
100
AcDbCircle
 10
0.0
 20
20.0
 30
-7.076862586963561
 40
7.399999999999999
210
-1.0
220
0.0
230
0.0
100
AcDbArc
 50
223.1664372702879
 51
316.8330310690269
  0
LINE
  5
15B
330
C6
100
AcDbEntity
  8
Livello 01
100
AcDbLine
 10
8.900000524211988
 20
0.0
 30
12.6
 11
5.1
 21
0.0
 31
12.6
  0
ARC
  5
15C
330
C6
100
AcDbEntity
  8
Livello 01
100
AcDbCircle
 10
0.0
 20
20.0
 30
-7.076233739535304
 40
7.4
210
-1.0
220
0.0
230
0.0
100
AcDbArc
 50
43.15633085406819
 51
136.8430783870776
  0
LINE
  5
15D
330
C6
100
AcDbEntity
  8
Livello 01
100
AcDbLine
 10
8.90000166419791
 20
0.0
 30
27.4
 11
5.1
 21
0.0
 31
27.4
  0
LINE
  5
15E
330
C6
100
AcDbEntity
  8
Livello 01
100
AcDbLine
 10
-1.1
 20
-5.45850000000001
 30
20.0
 11
-1.1
 21
-4.053393639902248
 31
20.0
  0
LINE
  5
15F
330
C6
100
AcDbEntity
  8
Livello 01
100
AcDbLine
 10
-1.1
 20
4.053393639902248
 30
20.0
 11
-1.1
 21
5.45850000000001
 31
20.0
  0
ARC
  5
160
330
C6
100
AcDbEntity
  8
Livello 01
100
AcDbCircle
 10
0.0
 20
20.0
 30
-2.0
 40
5.458500000000001
210
-1.0
220
0.0
230
0.0
100
AcDbArc
 50
312.6196110488319
 51
47.42190295563498
  0
ARC
  5
161
330
C6
100
AcDbEntity
  8
Livello 01
100
AcDbCircle
 10
0.0
 20
20.0
 30
-2.0
 40
5.458500000000001
210
-1.0
220
0.0
230
0.0
100
AcDbArc
 50
132.6194649747623
 51
227.4218911280091
  0
LINE
  5
162
330
C6
100
AcDbEntity
  8
Livello 01
100
AcDbLine
 10
5.1
 20
-5.458500000000001
 30
20.0
 11
-1.100000000000002
 21
-5.458500000000001
 31
20.0
  0
LINE
  5
163
330
C6
100
AcDbEntity
  8
Livello 01
100
AcDbLine
 10
5.1
 20
0.0
 30
25.4585
 11
4.200008489649832
 21
0.0
 31
25.4585
  0
LINE
  5
164
330
C6
100
AcDbEntity
  8
Livello 01
100
AcDbLine
 10
5.1
 20
5.458500000000001
 30
20.0
 11
-1.100000000000002
 21
5.458500000000001
 31
20.0
  0
ENDBLK
  5
166
330
C6
100
AcDbEntity
  8
0
100
AcDbBlockEnd
  0
BLOCK
  5
1F3
330
168
100
AcDbEntity
  8
0
100
AcDbBlockBegin
  2
10NI00360YY
 70
     0
 10
0.0
 20
0.0
 30
0.0
  3
10NI00360YY
  1

  0
CIRCLE
  5
169
330
168
100
AcDbEntity
  8
Livello 01
100
AcDbCircle
 10
0.0
 20
0.0
 30
-21.5
 40
3.05
210
0.0
220
0.0
230
-1.0
  0
ARC
  5
16A
330
168
100
AcDbEntity
  8
Livello 01
100
AcDbCircle
 10
0.0000000000000007
 20
-0.0000000000000116
 30
14.5
 40
3.049999999999988
100
AcDbArc
 50
209.9999999999999
 51
269.9999999999998
  0
ARC
  5
16B
330
168
100
AcDbEntity
  8
Livello 01
100
AcDbCircle
 10
-0.0000000000000114
 20
0.0000000000000004
 30
14.5
 40
3.049999999999983
100
AcDbArc
 50
149.9999999999998
 51
210.0000000000002
  0
ARC
  5
16C
330
168
100
AcDbEntity
  8
Livello 01
100
AcDbCircle
 10
0.0000000000000019
 20
0.000000000000009
 30
14.5
 40
3.04999999999999
100
AcDbArc
 50
89.9999999999999
 51
150.0000000000001
  0
ARC
  5
16D
330
168
100
AcDbEntity
  8
Livello 01
100
AcDbCircle
 10
0.0000000000000041
 20
0.0000000000000132
 30
14.5
 40
3.049999999999986
100
AcDbArc
 50
29.99999999999963
 51
89.99999999999991
  0
ARC
  5
16E
330
168
100
AcDbEntity
  8
Livello 01
100
AcDbCircle
 10
0.0000000000000151
 20
-0.000000000000001
 30
14.5
 40
3.049999999999985
100
AcDbArc
 50
329.9999999999996
 51
29.99999999999998
  0
ARC
  5
16F
330
168
100
AcDbEntity
  8
Livello 01
100
AcDbCircle
 10
0.0000000000000031
 20
-0.0000000000000089
 30
14.5
 40
3.049999999999991
100
AcDbArc
 50
269.9999999999998
 51
329.9999999999999
  0
LINE
  5
170
330
168
100
AcDbEntity
  8
Livello 01
100
AcDbLine
 10
0.0
 20
3.05
 30
14.5
 11
0.0
 21
3.05
 31
21.5
  0
CIRCLE
  5
171
330
168
100
AcDbEntity
  8
Livello 01
100
AcDbCircle
 10
0.0
 20
0.0
 30
-21.0
 40
6.0
210
0.0
220
0.0
230
-1.0
  0
CIRCLE
  5
172
330
168
100
AcDbEntity
  8
Livello 01
100
AcDbCircle
 10
0.0
 20
0.0
 30
17.1
 40
6.0
  0
LINE
  5
173
330
168
100
AcDbEntity
  8
Livello 01
100
AcDbLine
 10
-6.0
 20
0.0
 30
21.0
 11
-6.0
 21
0.0
 31
17.1
  0
CIRCLE
  5
174
330
168
100
AcDbEntity
  8
Livello 01
100
AcDbCircle
 10
0.0
 20
0.0
 30
15.5
 40
5.2
  0
CIRCLE
  5
175
330
168
100
AcDbEntity
  8
Livello 01
100
AcDbCircle
 10
0.0
 20
0.0
 30
-17.1
 40
5.2
210
0.0
220
0.0
230
-1.0
  0
LINE
  5
176
330
168
100
AcDbEntity
  8
Livello 01
100
AcDbLine
 10
-5.2
 20
0.0
 30
17.1
 11
-5.2
 21
0.0
 31
15.5
  0
CIRCLE
  5
177
330
168
100
AcDbEntity
  8
Livello 01
100
AcDbCircle
 10
0.0
 20
0.0
 30
9.5
 40
7.1
  0
CIRCLE
  5
178
330
168
100
AcDbEntity
  8
Livello 01
100
AcDbCircle
 10
0.0
 20
0.0
 30
-15.5
 40
7.1
210
0.0
220
0.0
230
-1.0
  0
LINE
  5
179
330
168
100
AcDbEntity
  8
Livello 01
100
AcDbLine
 10
-7.1
 20
0.0
 30
15.5
 11
-7.1
 21
0.0
 31
9.499999999999998
  0
CIRCLE
  5
17A
330
168
100
AcDbEntity
  8
Livello 01
100
AcDbCircle
 10
0.0
 20
0.0
 30
-9.0
 40
10.4775
210
0.0
220
0.0
230
-1.0
  0
LINE
  5
17B
330
168
100
AcDbEntity
  8
Livello 01
100
AcDbLine
 10
-10.4775
 20
0.0
 30
9.0
 11
-10.4775
 21
0.0
 31
0.5000000000000013
  0
CIRCLE
  5
17C
330
168
100
AcDbEntity
  8
Livello 01
100
AcDbCircle
 10
0.0
 20
0.0
 30
-21.5
 40
5.5
210
0.0
220
0.0
230
-1.0
  0
LINE
  5
17D
330
168
100
AcDbEntity
  8
Livello 01
100
AcDbLine
 10
-5.5
 20
0.0
 30
21.5
 11
-5.999999999999998
 21
0.0
 31
21.0
  0
CIRCLE
  5
17E
330
168
100
AcDbEntity
  8
Livello 01
100
AcDbCircle
 10
0.0
 20
0.0
 30
-9.5
 40
9.9775
210
0.0
220
0.0
230
-1.0
  0
LINE
  5
17F
330
168
100
AcDbEntity
  8
Livello 01
100
AcDbLine
 10
-9.977500000000001
 20
0.0
 30
9.499999999999996
 11
-10.4775
 21
0.0
 31
8.999999999999996
  0
ARC
  5
180
330
168
100
AcDbEntity
  8
Livello 01
100
AcDbCircle
 10
0.0
 20
0.0
 30
-0.5
 40
10.4775
210
0.0
220
0.0
230
-1.0
100
AcDbArc
 50
180.0
 51
0.000000000000007
  0
CIRCLE
  5
181
330
168
100
AcDbEntity
  8
Livello 01
100
AcDbCircle
 10
0.0
 20
0.0
 30
0.0
 40
9.9775
  0
LINE
  5
182
330
168
100
AcDbEntity
  8
Livello 01
100
AcDbLine
 10
9.977500000000001
 20
0.0
 30
0.0
 11
10.4775
 21
0.0
 31
0.4999999999999998
  0
ARC
  5
183
330
168
100
AcDbEntity
  8
Livello 01
100
AcDbCircle
 10
0.0
 20
0.0
 30
-0.5
 40
10.4775
210
0.0
220
0.0
230
-1.0
100
AcDbArc
 50
0.000000000000007
 51
180.0
  0
LINE
  5
184
330
168
100
AcDbEntity
  8
Livello 01
100
AcDbLine
 10
0.0
 20
-3.050002551534054
 30
8.239080205842757
 11
0.0
 21
-7.099999999999999
 31
5.900813088753659
  0
ARC
  5
185
330
168
100
AcDbEntity
  8
Livello 01
100
AcDbCircle
 10
0.0
 20
0.0
 30
-5.90081308875366
 40
7.1
210
0.0
220
0.0
230
-1.0
100
AcDbArc
 50
90.00000000000001
 51
270.0
  0
CIRCLE
  5
186
330
168
100
AcDbEntity
  8
Livello 01
100
AcDbCircle
 10
0.0
 20
0.0
 30
0.0
 40
7.1
210
0.0
220
0.0
230
-1.0
  0
LINE
  5
187
330
168
100
AcDbEntity
  8
Livello 01
100
AcDbLine
 10
0.0
 20
7.1
 30
0.0000000000000007
 11
0.0
 21
7.1
 31
5.900813088753663
  0
ARC
  5
188
330
168
100
AcDbEntity
  8
Livello 01
100
AcDbCircle
 10
0.0
 20
0.0
 30
-5.90081308875366
 40
7.1
210
0.0
220
0.0
230
-1.0
100
AcDbArc
 50
270.0
 51
90.0
  0
SPLINE
  5
189
330
168
100
AcDbEntity
  8
Livello 01
100
AcDbSpline
210
0.0
220
0.0
230
1.0
 70
    24
 71
     2
 72
     6
 73
     3
 74
     0
 42
0.0000000001
 43
0.0000000001
 40
0.0
 40
0.0
 40
0.0
 40
1.760918321028344
 40
1.760918321028344
 40
1.760918321028344
 10
-0.0000000000000065
 20
-3.05
 30
14.5
 10
-0.8804591605141783
 20
-3.05
 30
14.5
 10
-1.76091832102835
 20
-3.05
 30
14.5
  0
SPLINE
  5
18A
330
168
100
AcDbEntity
  8
Livello 01
100
AcDbSpline
210
0.0
220
0.0
230
1.0
 70
    24
 71
     2
 72
     6
 73
     3
 74
     0
 42
0.0000000001
 43
0.0000000001
 40
0.0
 40
0.0
 40
0.0
 40
1.760918321028357
 40
1.760918321028357
 40
1.760918321028357
 10
1.76091832102835
 20
-3.05
 30
14.5
 10
0.8804591605141718
 20
-3.05
 30
14.5
 10
-0.0000000000000065
 20
-3.05
 30
14.5
  0
SPLINE
  5
18B
330
168
100
AcDbEntity
  8
Livello 01
100
AcDbSpline
210
0.0
220
0.0
230
1.0
 70
    24
 71
     2
 72
     6
 73
     3
 74
     0
 42
0.0000000001
 43
0.0000000001
 40
0.0
 40
0.0
 40
0.0
 40
1.760918321028352
 40
1.760918321028352
 40
1.760918321028352
 10
0.0000000000000082
 20
3.05
 30
14.5
 10
0.8804591605141842
 20
3.049999999999995
 30
14.5
 10
1.76091832102836
 20
3.04999999999999
 30
14.5
  0
SPLINE
  5
18C
330
168
100
AcDbEntity
  8
Livello 01
100
AcDbSpline
210
0.0
220
0.0
230
1.0
 70
    24
 71
     2
 72
     6
 73
     3
 74
     0
 42
0.0000000001
 43
0.0000000001
 40
0.0
 40
0.0
 40
0.0
 40
1.760918321028358
 40
1.760918321028358
 40
1.760918321028358
 10
-1.76091832102835
 20
3.05
 30
14.5
 10
-0.880459160514171
 20
3.05
 30
14.5
 10
0.0000000000000082
 20
3.05
 30
14.5
  0
SPLINE
  5
18D
330
168
100
AcDbEntity
  8
Livello 01
100
AcDbSpline
210
0.0
220
0.0
230
1.0
 70
    24
 71
     2
 72
     6
 73
     3
 74
     0
 42
0.0000000001
 43
0.0000000001
 40
-6.53333333333333
 40
-6.53333333333333
 40
-6.53333333333333
 40
0.0
 40
0.0
 40
0.0
 10
1.76091832102835
 20
-3.05
 30
7.96666666666667
 10
1.76091832102835
 20
-3.05
 30
11.23333333333333
 10
1.76091832102835
 20
-3.05
 30
14.5
  0
SPLINE
  5
18E
330
168
100
AcDbEntity
  8
Livello 01
100
AcDbSpline
210
2.290455013468780E-15
220
-1.0
230
-3.436880058253743E-14
 70
     8
 71
     3
 72
     8
 73
     4
 74
     0
 42
0.0000000001
 43
0.0000000001
 40
1.808627501227261
 40
1.808627501227261
 40
1.808627501227261
 40
1.808627501227261
 40
3.606853598383639
 40
3.606853598383639
 40
3.606853598383639
 40
3.606853598383639
 10
0.0000000000000008
 20
-3.050000000000005
 30
8.23907578645615
 10
-0.5921403903248275
 20
-3.050000000000006
 30
8.238377382795276
 10
-1.18987496787179
 20
-3.050000000000008
 30
8.13151268349861
 10
-1.76091832102835
 20
-3.05
 30
7.96666666666667
  0
SPLINE
  5
18F
330
168
100
AcDbEntity
  8
Livello 01
100
AcDbSpline
210
0.0
220
0.0
230
1.0
 70
    24
 71
     2
 72
     6
 73
     3
 74
     0
 42
0.0000000001
 43
0.0000000001
 40
-6.53333333333333
 40
-6.53333333333333
 40
-6.53333333333333
 40
0.0
 40
0.0
 40
0.0
 10
-1.76091832102835
 20
-3.05
 30
14.5
 10
-1.76091832102835
 20
-3.05
 30
11.23333333333333
 10
-1.76091832102835
 20
-3.05
 30
7.96666666666667
  0
SPLINE
  5
190
330
168
100
AcDbEntity
  8
Livello 01
100
AcDbSpline
210
2.232943356518402E-15
220
-1.0
230
-3.498232521640070E-15
 70
     8
 71
     3
 72
     9
 73
     5
 74
     0
 42
0.0000000001
 43
0.0000000001
 40
0.0
 40
0.0
 40
0.0
 40
0.0
 40
1.80342679919183
 40
1.808627501227261
 40
1.808627501227261
 40
1.808627501227261
 40
1.808627501227261
 10
1.76091832102835
 20
-3.05
 30
7.96666666666667
 10
1.18705741981387
 20
-3.050000000000002
 30
8.132326039563463
 10
0.597261757002742
 20
-3.050000000000003
 30
8.23947142706695
 10
0.0017125464579198
 20
-3.050000000000005
 30
8.239077806329703
 10
0.0000000000000007
 20
-3.050000000000005
 30
8.239075786456148
  0
SPLINE
  5
191
330
168
100
AcDbEntity
  8
Livello 01
100
AcDbSpline
210
0.0
220
0.0
230
1.0
 70
    24
 71
     2
 72
     6
 73
     3
 74
     0
 42
0.0000000001
 43
0.0000000001
 40
-1.760918321028359
 40
-1.760918321028359
 40
-1.760918321028359
 40
0.0
 40
0.0
 40
0.0
 10
-1.76091832102835
 20
-3.05
 30
14.5
 10
-2.20114790128544
 20
-2.2875
 30
14.5
 10
-2.64137748154253
 20
-1.525
 30
14.5
  0
SPLINE
  5
192
330
168
100
AcDbEntity
  8
Livello 01
100
AcDbSpline
210
0.8660254037844385
220
0.5000000000000003
230
6.991967160197960E-15
 70
     8
 71
     3
 72
     9
 73
     5
 74
     0
 42
0.0000000001
 43
0.0000000001
 40
0.0
 40
0.0
 40
0.0
 40
0.0
 40
1.803329543372199
 40
3.606659086744317
 40
3.606659086744317
 40
3.606659086744317
 40
3.606659086744317
 10
-1.76091832102835
 20
-3.05
 30
7.96666666666667
 10
-2.048800686636677
 20
-2.551373116163257
 30
8.13287562794552
 10
-2.644560814088256
 20
-1.51948630629342
 30
8.345389010524274
 10
-3.234312536359407
 20
-0.4980063594685474
 30
8.13266878648965
 10
-3.52183664205671
 20
0.0
 30
7.96666666666667
  0
SPLINE
  5
193
330
168
100
AcDbEntity
  8
Livello 01
100
AcDbSpline
210
0.0
220
0.0
230
1.0
 70
    24
 71
     2
 72
     6
 73
     3
 74
     0
 42
0.0000000001
 43
0.0000000001
 40
-6.53333333333333
 40
-6.53333333333333
 40
-6.53333333333333
 40
0.0
 40
0.0
 40
0.0
 10
-3.52183664205671
 20
0.0
 30
14.5
 10
-3.52183664205671
 20
0.0
 30
11.23333333333333
 10
-3.52183664205671
 20
0.0
 30
7.96666666666667
  0
SPLINE
  5
194
330
168
100
AcDbEntity
  8
Livello 01
100
AcDbSpline
210
0.0
220
0.0
230
1.0
 70
    24
 71
     2
 72
     6
 73
     3
 74
     0
 42
0.0000000001
 43
0.0000000001
 40
-1.760918321028359
 40
-1.760918321028359
 40
-1.760918321028359
 40
0.0
 40
0.0
 40
0.0
 10
-2.64137748154253
 20
-1.525
 30
14.5
 10
-3.08160706179962
 20
-0.7625
 30
14.5
 10
-3.52183664205671
 20
0.0
 30
14.5
  0
SPLINE
  5
195
330
168
100
AcDbEntity
  8
Livello 01
100
AcDbSpline
210
0.0
220
0.0
230
1.0
 70
    24
 71
     2
 72
     6
 73
     3
 74
     0
 42
0.0000000001
 43
0.0000000001
 40
-1.760918321028359
 40
-1.760918321028359
 40
-1.760918321028359
 40
0.0
 40
0.0
 40
0.0
 10
-3.52183664205671
 20
0.0
 30
14.5
 10
-3.08160706179962
 20
0.7625
 30
14.5
 10
-2.64137748154253
 20
1.525
 30
14.5
  0
SPLINE
  5
196
330
168
100
AcDbEntity
  8
Livello 01
100
AcDbSpline
210
0.8660254037844385
220
-0.5000000000000003
230
7.324917977350243E-15
 70
     8
 71
     3
 72
     9
 73
     5
 74
     0
 42
0.0000000001
 43
0.0000000001
 40
0.0
 40
0.0
 40
0.0
 40
0.0
 40
1.803329543372189
 40
3.606659086744318
 40
3.606659086744318
 40
3.606659086744318
 40
3.606659086744318
 10
-3.52183664205671
 20
0.0
 30
7.96666666666667
 10
-3.233954276448387
 20
0.4986268838367438
 30
8.13287562794552
 10
-2.63819414899681
 20
1.53051369370658
 30
8.345389010524274
 10
-2.048442426725662
 20
2.551993640531448
 30
8.13266878648966
 10
-1.76091832102835
 20
3.05
 30
7.96666666666667
  0
SPLINE
  5
197
330
168
100
AcDbEntity
  8
Livello 01
100
AcDbSpline
210
0.0
220
0.0
230
1.0
 70
    24
 71
     2
 72
     6
 73
     3
 74
     0
 42
0.0000000001
 43
0.0000000001
 40
-6.53333333333333
 40
-6.53333333333333
 40
-6.53333333333333
 40
0.0
 40
0.0
 40
0.0
 10
-1.76091832102835
 20
3.05
 30
14.5
 10
-1.76091832102835
 20
3.05
 30
11.23333333333333
 10
-1.76091832102835
 20
3.05
 30
7.96666666666667
  0
SPLINE
  5
198
330
168
100
AcDbEntity
  8
Livello 01
100
AcDbSpline
210
0.0
220
0.0
230
1.0
 70
    24
 71
     2
 72
     6
 73
     3
 74
     0
 42
0.0000000001
 43
0.0000000001
 40
-1.760918321028359
 40
-1.760918321028359
 40
-1.760918321028359
 40
0.0
 40
0.0
 40
0.0
 10
-2.64137748154253
 20
1.525
 30
14.5
 10
-2.20114790128544
 20
2.2875
 30
14.5
 10
-1.76091832102835
 20
3.05
 30
14.5
  0
SPLINE
  5
199
330
168
100
AcDbEntity
  8
Livello 01
100
AcDbSpline
210
-2.774110104946786E-15
220
-1.0
230
1.279837972954654E-14
 70
     8
 71
     3
 72
     9
 73
     5
 74
     0
 42
0.0000000001
 43
0.0000000001
 40
0.0
 40
0.0
 40
0.0
 40
0.0
 40
1.803426799191823
 40
3.606853598383647
 40
3.606853598383647
 40
3.606853598383647
 40
3.606853598383647
 10
-1.76091832102835
 20
3.05
 30
7.96666666666667
 10
-1.18705741981387
 20
3.05
 30
8.132326039563463
 10
-0.0108580049106442
 20
3.05
 30
8.346000622198595
 10
1.18822343676913
 20
3.04999999999999
 30
8.131989439461957
 10
1.76091832102836
 20
3.04999999999999
 30
7.96666666666667
  0
SPLINE
  5
19A
330
168
100
AcDbEntity
  8
Livello 01
100
AcDbSpline
210
0.0
220
0.0
230
1.0
 70
    24
 71
     2
 72
     6
 73
     3
 74
     0
 42
0.0000000001
 43
0.0000000001
 40
-6.53333333333333
 40
-6.53333333333333
 40
-6.53333333333333
 40
0.0
 40
0.0
 40
0.0
 10
1.76091832102836
 20
3.04999999999999
 30
14.5
 10
1.76091832102836
 20
3.04999999999999
 30
11.23333333333333
 10
1.76091832102836
 20
3.04999999999999
 30
7.96666666666667
  0
SPLINE
  5
19B
330
168
100
AcDbEntity
  8
Livello 01
100
AcDbSpline
210
0.0
220
0.0
230
1.0
 70
    24
 71
     2
 72
     6
 73
     3
 74
     0
 42
0.0000000001
 43
0.0000000001
 40
-1.760918321028359
 40
-1.760918321028359
 40
-1.760918321028359
 40
0.0
 40
0.0
 40
0.0
 10
1.76091832102836
 20
3.04999999999999
 30
14.5
 10
2.20114790128545
 20
2.28749999999999
 30
14.5
 10
2.64137748154254
 20
1.52499999999999
 30
14.5
  0
SPLINE
  5
19C
330
168
100
AcDbEntity
  8
Livello 01
100
AcDbSpline
210
0.8660254037844386
220
0.5000000000000004
230
2.197475393205073E-14
 70
     8
 71
     3
 72
     9
 73
     5
 74
     0
 42
0.0000000001
 43
0.0000000001
 40
0.0
 40
0.0
 40
0.0
 40
0.0
 40
1.803329543372193
 40
3.606659086744317
 40
3.606659086744317
 40
3.606659086744317
 40
3.606659086744317
 10
1.76091832102836
 20
3.04999999999999
 30
7.96666666666667
 10
2.048800686636686
 20
2.551373116163241
 30
8.13287562794552
 10
2.644560814088255
 20
1.519486306293407
 30
8.345389010524274
 10
3.234312536359406
 20
0.4980063594685388
 30
8.132668786489653
 10
3.52183664205672
 20
-0.0000000000000098
 30
7.96666666666667
  0
SPLINE
  5
19D
330
168
100
AcDbEntity
  8
Livello 01
100
AcDbSpline
210
0.0
220
0.0
230
1.0
 70
    24
 71
     2
 72
     6
 73
     3
 74
     0
 42
0.0000000001
 43
0.0000000001
 40
-6.53333333333333
 40
-6.53333333333333
 40
-6.53333333333333
 40
0.0
 40
0.0
 40
0.0
 10
3.52183664205672
 20
-0.0000000000000095
 30
14.5
 10
3.52183664205672
 20
-0.0000000000000097
 30
11.23333333333333
 10
3.52183664205672
 20
-0.0000000000000098
 30
7.96666666666667
  0
SPLINE
  5
19E
330
168
100
AcDbEntity
  8
Livello 01
100
AcDbSpline
210
0.0
220
0.0
230
1.0
 70
    24
 71
     2
 72
     6
 73
     3
 74
     0
 42
0.0000000001
 43
0.0000000001
 40
-1.760918321028359
 40
-1.760918321028359
 40
-1.760918321028359
 40
0.0
 40
0.0
 40
0.0
 10
2.64137748154254
 20
1.52499999999999
 30
14.5
 10
3.08160706179963
 20
0.7624999999999902
 30
14.5
 10
3.52183664205672
 20
-0.0000000000000095
 30
14.5
  0
SPLINE
  5
19F
330
168
100
AcDbEntity
  8
Livello 01
100
AcDbSpline
210
0.0
220
0.0
230
1.0
 70
    24
 71
     2
 72
     6
 73
     3
 74
     0
 42
0.0000000001
 43
0.0000000001
 40
-1.760918321028364
 40
-1.760918321028364
 40
-1.760918321028364
 40
0.0
 40
0.0
 40
0.0
 10
3.52183664205672
 20
-0.0000000000000095
 30
14.5
 10
3.081607061799625
 20
-0.7625000000000097
 30
14.5
 10
2.64137748154253
 20
-1.52500000000001
 30
14.5
  0
SPLINE
  5
1A0
330
168
100
AcDbEntity
  8
Livello 01
100
AcDbSpline
210
0.8660254037844367
220
-0.5000000000000038
230
-1.032147533172081E-14
 70
     8
 71
     3
 72
     9
 73
     5
 74
     0
 42
0.0000000001
 43
0.0000000001
 40
0.0
 40
0.0
 40
0.0
 40
0.0
 40
1.803329543372194
 40
3.606659086744314
 40
3.606659086744314
 40
3.606659086744314
 40
3.606659086744314
 10
3.52183664205672
 20
-0.0000000000000098
 30
7.96666666666667
 10
3.233954276448394
 20
-0.4986268838367537
 30
8.13287562794552
 10
2.638194148996815
 20
-1.530513693706587
 30
8.345389010524274
 10
2.048442426725662
 20
-2.551993640531452
 30
8.132668786489653
 10
1.76091832102835
 20
-3.05
 30
7.96666666666667
  0
SPLINE
  5
1A1
330
168
100
AcDbEntity
  8
Livello 01
100
AcDbSpline
210
0.0
220
0.0
230
1.0
 70
    24
 71
     2
 72
     6
 73
     3
 74
     0
 42
0.0000000001
 43
0.0000000001
 40
-1.76091832102835
 40
-1.76091832102835
 40
-1.76091832102835
 40
0.0
 40
0.0
 40
0.0
 10
2.64137748154253
 20
-1.52500000000001
 30
14.5
 10
2.20114790128544
 20
-2.287500000000005
 30
14.5
 10
1.76091832102835
 20
-3.05
 30
14.5
  0
CIRCLE
  5
1A2
330
168
100
AcDbEntity
  8
Livello 01
100
AcDbCircle
 10
0.0
 20
0.0
 30
18.0
 40
3.05
  0
LINE
  5
1A3
330
168
100
AcDbEntity
  8
Livello 01
100
AcDbLine
 10
-3.05
 20
0.0
 30
14.5
 11
-3.05
 21
0.0
 31
21.5
  0
LINE
  5
1A4
330
168
100
AcDbEntity
  8
Livello 01
100
AcDbLine
 10
0.0
 20
-3.05
 30
14.5
 11
0.0
 21
-3.05
 31
21.5
  0
LINE
  5
1A5
330
168
100
AcDbEntity
  8
Livello 01
100
AcDbLine
 10
3.05
 20
0.0
 30
14.5
 11
3.05
 21
0.0
 31
21.5
  0
LINE
  5
1A6
330
168
100
AcDbEntity
  8
Livello 01
100
AcDbLine
 10
5.499999999999999
 20
0.0
 30
21.5
 11
3.049999999999999
 21
0.0
 31
21.5
  0
LINE
  5
1A7
330
168
100
AcDbEntity
  8
Livello 01
100
AcDbLine
 10
-3.049999999999999
 20
0.0
 30
21.5
 11
-5.500000000000001
 21
0.0
 31
21.5
  0
LINE
  5
1A8
330
168
100
AcDbEntity
  8
Livello 01
100
AcDbLine
 10
0.0
 20
-5.499999999999999
 30
21.5
 11
0.0
 21
-3.049999999999999
 31
21.5
  0
LINE
  5
1A9
330
168
100
AcDbEntity
  8
Livello 01
100
AcDbLine
 10
0.0
 20
3.049999999999999
 30
21.5
 11
0.0
 21
5.500000000000001
 31
21.5
  0
CIRCLE
  5
1AA
330
168
100
AcDbEntity
  8
Livello 01
100
AcDbCircle
 10
0.0
 20
0.0
 30
-19.05
 40
6.0
210
0.0
220
0.0
230
-1.0
  0
LINE
  5
1AB
330
168
100
AcDbEntity
  8
Livello 01
100
AcDbLine
 10
0.0
 20
6.0
 30
21.0
 11
0.0
 21
6.0
 31
17.1
  0
LINE
  5
1AC
330
168
100
AcDbEntity
  8
Livello 01
100
AcDbLine
 10
6.0
 20
0.0
 30
21.0
 11
6.0
 21
0.0
 31
17.1
  0
LINE
  5
1AD
330
168
100
AcDbEntity
  8
Livello 01
100
AcDbLine
 10
0.0
 20
-6.0
 30
21.0
 11
0.0
 21
-6.0
 31
17.1
  0
LINE
  5
1AE
330
168
100
AcDbEntity
  8
Livello 01
100
AcDbLine
 10
-6.0
 20
0.0
 30
17.1
 11
-5.2
 21
0.0
 31
17.1
  0
LINE
  5
1AF
330
168
100
AcDbEntity
  8
Livello 01
100
AcDbLine
 10
5.199999999999998
 20
0.0
 30
17.1
 11
6.0
 21
0.0
 31
17.1
  0
LINE
  5
1B0
330
168
100
AcDbEntity
  8
Livello 01
100
AcDbLine
 10
0.0000000000000009
 20
-6.0
 30
17.1
 11
0.0000000000000009
 21
-5.200000000000001
 31
17.1
  0
LINE
  5
1B1
330
168
100
AcDbEntity
  8
Livello 01
100
AcDbLine
 10
0.0000000000000009
 20
5.199999999999999
 30
17.1
 11
0.0000000000000009
 21
5.999999999999997
 31
17.1
  0
CIRCLE
  5
1B2
330
168
100
AcDbEntity
  8
Livello 01
100
AcDbCircle
 10
0.0
 20
0.0
 30
-16.3
 40
5.2
210
0.0
220
0.0
230
-1.0
  0
LINE
  5
1B3
330
168
100
AcDbEntity
  8
Livello 01
100
AcDbLine
 10
0.0
 20
5.2
 30
17.1
 11
0.0
 21
5.2
 31
15.5
  0
LINE
  5
1B4
330
168
100
AcDbEntity
  8
Livello 01
100
AcDbLine
 10
5.2
 20
0.0
 30
17.1
 11
5.2
 21
0.0
 31
15.5
  0
LINE
  5
1B5
330
168
100
AcDbEntity
  8
Livello 01
100
AcDbLine
 10
0.0
 20
-5.2
 30
17.1
 11
0.0
 21
-5.2
 31
15.5
  0
LINE
  5
1B6
330
168
100
AcDbEntity
  8
Livello 01
100
AcDbLine
 10
7.100000000000001
 20
0.0
 30
15.5
 11
5.200000000000001
 21
0.0
 31
15.5
  0
LINE
  5
1B7
330
168
100
AcDbEntity
  8
Livello 01
100
AcDbLine
 10
-5.2
 20
0.0
 30
15.5
 11
-7.100000000000001
 21
0.0
 31
15.5
  0
LINE
  5
1B8
330
168
100
AcDbEntity
  8
Livello 01
100
AcDbLine
 10
0.0000000000000009
 20
-7.1
 30
15.5
 11
0.0000000000000009
 21
-5.199999999999999
 31
15.5
  0
LINE
  5
1B9
330
168
100
AcDbEntity
  8
Livello 01
100
AcDbLine
 10
0.0000000000000009
 20
5.199999999999999
 30
15.5
 11
0.0000000000000009
 21
7.100000000000001
 31
15.5
  0
CIRCLE
  5
1BA
330
168
100
AcDbEntity
  8
Livello 01
100
AcDbCircle
 10
0.0
 20
0.0
 30
-12.5
 40
7.1
210
0.0
220
0.0
230
-1.0
  0
LINE
  5
1BB
330
168
100
AcDbEntity
  8
Livello 01
100
AcDbLine
 10
0.0
 20
7.1
 30
15.5
 11
0.0
 21
7.1
 31
9.5
  0
LINE
  5
1BC
330
168
100
AcDbEntity
  8
Livello 01
100
AcDbLine
 10
7.1
 20
0.0
 30
15.5
 11
7.1
 21
0.0
 31
9.5
  0
LINE
  5
1BD
330
168
100
AcDbEntity
  8
Livello 01
100
AcDbLine
 10
0.0
 20
-7.1
 30
15.5
 11
0.0
 21
-7.1
 31
9.5
  0
LINE
  5
1BE
330
168
100
AcDbEntity
  8
Livello 01
100
AcDbLine
 10
9.977500000000004
 20
-0.0000000000000009
 30
9.5
 11
7.1
 21
-0.0000000000000009
 31
9.5
  0
LINE
  5
1BF
330
168
100
AcDbEntity
  8
Livello 01
100
AcDbLine
 10
-7.1
 20
-0.0000000000000009
 30
9.5
 11
-9.977499999999996
 21
-0.0000000000000009
 31
9.5
  0
LINE
  5
1C0
330
168
100
AcDbEntity
  8
Livello 01
100
AcDbLine
 10
0.0000000000000018
 20
-9.9775
 30
9.5
 11
0.0000000000000018
 21
-7.100000000000001
 31
9.5
  0
LINE
  5
1C1
330
168
100
AcDbEntity
  8
Livello 01
100
AcDbLine
 10
0.0000000000000018
 20
7.099999999999999
 30
9.5
 11
0.0000000000000018
 21
9.977500000000001
 31
9.5
  0
CIRCLE
  5
1C2
330
168
100
AcDbEntity
  8
Livello 01
100
AcDbCircle
 10
0.0
 20
0.0
 30
-4.75
 40
10.4775
210
0.0
220
0.0
230
-1.0
  0
LINE
  5
1C3
330
168
100
AcDbEntity
  8
Livello 01
100
AcDbLine
 10
0.0
 20
10.4775
 30
9.000000000000002
 11
0.0
 21
10.4775
 31
0.5000000000000007
  0
LINE
  5
1C4
330
168
100
AcDbEntity
  8
Livello 01
100
AcDbLine
 10
10.4775
 20
0.0
 30
9.000000000000002
 11
10.4775
 21
0.0
 31
0.5000000000000007
  0
LINE
  5
1C5
330
168
100
AcDbEntity
  8
Livello 01
100
AcDbLine
 10
0.0
 20
-10.4775
 30
9.000000000000002
 11
0.0
 21
-10.4775
 31
0.5000000000000007
  0
LINE
  5
1C6
330
168
100
AcDbEntity
  8
Livello 01
100
AcDbLine
 10
-9.9775
 20
-0.0000000000000009
 30
0.0
 11
-7.100000000000001
 21
-0.0000000000000009
 31
0.0
  0
LINE
  5
1C7
330
168
100
AcDbEntity
  8
Livello 01
100
AcDbLine
 10
7.100000000000001
 20
-0.0000000000000009
 30
0.0
 11
9.977499999999992
 21
-0.0000000000000009
 31
0.0
  0
LINE
  5
1C8
330
168
100
AcDbEntity
  8
Livello 01
100
AcDbLine
 10
0.0
 20
-9.9775
 30
0.0
 11
0.0
 21
-7.100000000000001
 31
0.0
  0
LINE
  5
1C9
330
168
100
AcDbEntity
  8
Livello 01
100
AcDbLine
 10
0.0
 20
7.099999999999999
 30
0.0
 11
0.0
 21
9.977500000000001
 31
0.0
  0
LINE
  5
1CA
330
168
100
AcDbEntity
  8
Livello 01
100
AcDbLine
 10
0.0
 20
5.5
 30
21.5
 11
0.0
 21
5.999999999999999
 31
21.0
  0
LINE
  5
1CB
330
168
100
AcDbEntity
  8
Livello 01
100
AcDbLine
 10
5.5
 20
0.0
 30
21.5
 11
5.999999999999999
 21
0.0
 31
21.0
  0
LINE
  5
1CC
330
168
100
AcDbEntity
  8
Livello 01
100
AcDbLine
 10
0.0
 20
-5.5
 30
21.5
 11
0.0
 21
-5.999999999999999
 31
21.0
  0
LINE
  5
1CD
330
168
100
AcDbEntity
  8
Livello 01
100
AcDbLine
 10
0.0
 20
9.977500000000001
 30
9.499999999999996
 11
0.0
 21
10.4775
 31
8.999999999999998
  0
LINE
  5
1CE
330
168
100
AcDbEntity
  8
Livello 01
100
AcDbLine
 10
9.977500000000001
 20
0.0
 30
9.499999999999996
 11
10.4775
 21
0.0
 31
8.999999999999998
  0
LINE
  5
1CF
330
168
100
AcDbEntity
  8
Livello 01
100
AcDbLine
 10
0.0
 20
-9.977500000000001
 30
9.499999999999996
 11
0.0
 21
-10.4775
 31
8.999999999999998
  0
LINE
  5
1D0
330
168
100
AcDbEntity
  8
Livello 01
100
AcDbLine
 10
0.0
 20
9.977500000000001
 30
0.0000000000000002
 11
0.0
 21
10.4775
 31
0.4999999999999993
  0
LINE
  5
1D1
330
168
100
AcDbEntity
  8
Livello 01
100
AcDbLine
 10
-9.977500000000001
 20
0.0
 30
0.0000000000000002
 11
-10.4775
 21
0.0
 31
0.4999999999999993
  0
LINE
  5
1D2
330
168
100
AcDbEntity
  8
Livello 01
100
AcDbLine
 10
0.0
 20
-9.977500000000001
 30
0.0000000000000002
 11
0.0
 21
-10.4775
 31
0.4999999999999993
  0
CIRCLE
  5
1D3
330
168
100
AcDbEntity
  8
Livello 01
100
AcDbCircle
 10
0.0
 20
0.0
 30
-7.715447198814504
 40
3.956961524227065
210
0.0
220
0.0
230
-1.0
  0
LINE
  5
1D4
330
168
100
AcDbEntity
  8
Livello 01
100
AcDbLine
 10
-3.521836642056706
 20
0.0
 30
7.966666666666663
 11
-7.099999999999998
 21
0.0
 31
5.90081308875366
  0
LINE
  5
1D5
330
168
100
AcDbEntity
  8
Livello 01
100
AcDbLine
 10
0.0
 20
3.050002278827079
 30
8.239080363290203
 11
0.0
 21
7.099999999999998
 31
5.90081308875366
  0
LINE
  5
1D6
330
168
100
AcDbEntity
  8
Livello 01
100
AcDbLine
 10
3.521836642056714
 20
0.0
 30
7.96666666666666
 11
7.099999999999998
 21
0.0
 31
5.90081308875366
  0
CIRCLE
  5
1D7
330
168
100
AcDbEntity
  8
Livello 01
100
AcDbCircle
 10
0.0
 20
0.0
 30
2.95040654437683
 40
7.1
  0
LINE
  5
1D8
330
168
100
AcDbEntity
  8
Livello 01
100
AcDbLine
 10
-7.1
 20
0.0
 30
0.0000000000000001
 11
-7.1
 21
0.0
 31
5.90081308875366
  0
LINE
  5
1D9
330
168
100
AcDbEntity
  8
Livello 01
100
AcDbLine
 10
0.0
 20
-7.1
 30
0.0000000000000001
 11
0.0
 21
-7.1
 31
5.90081308875366
  0
LINE
  5
1DA
330
168
100
AcDbEntity
  8
Livello 01
100
AcDbLine
 10
7.1
 20
0.0
 30
0.0000000000000001
 11
7.1
 21
0.0
 31
5.90081308875366
  0
LINE
  5
1DB
330
168
100
AcDbEntity
  8
Livello 01
100
AcDbLine
 10
-2.017385374686745
 20
-2.2875
 30
14.5
 11
-2.20114790128544
 21
-2.2875
 31
14.5
  0
LINE
  5
1DC
330
168
100
AcDbEntity
  8
Livello 01
100
AcDbLine
 10
-1.320688740771268
 20
-3.05
 30
14.5
 11
-1.320688740771268
 21
-2.749232847541289
 31
14.5
  0
LINE
  5
1DD
330
168
100
AcDbEntity
  8
Livello 01
100
AcDbLine
 10
2.201147901285438
 20
-2.287500000000008
 30
14.5
 11
2.017385374686742
 21
-2.287500000000008
 31
14.5
  0
LINE
  5
1DE
330
168
100
AcDbEntity
  8
Livello 01
100
AcDbLine
 10
1.320688740771262
 20
-3.05
 30
14.5
 11
1.320688740771262
 21
-2.749232847541295
 31
14.5
  0
LINE
  5
1DF
330
168
100
AcDbEntity
  8
Livello 01
100
AcDbLine
 10
3.52183664205672
 20
-0.00000000000001
 30
14.5
 11
3.049999999999999
 21
-0.00000000000001
 31
14.5
  0
LINE
  5
1E0
330
168
100
AcDbEntity
  8
Livello 01
100
AcDbLine
 10
3.081607061799625
 20
-0.7625000000000101
 30
14.5
 11
3.081607061799625
 21
0.7624999999999991
 31
14.5
  0
LINE
  5
1E1
330
168
100
AcDbEntity
  8
Livello 01
100
AcDbLine
 10
2.201147901285447
 20
2.287499999999995
 30
14.5
 11
2.017385374686755
 21
2.287499999999995
 31
14.5
  0
LINE
  5
1E2
330
168
100
AcDbEntity
  8
Livello 01
100
AcDbLine
 10
1.320688740771274
 20
2.74923284754129
 30
14.5
 11
1.320688740771274
 21
3.049999999999993
 31
14.5
  0
LINE
  5
1E3
330
168
100
AcDbEntity
  8
Livello 01
100
AcDbLine
 10
-2.017385374686743
 20
2.287500000000001
 30
14.5
 11
-2.20114790128544
 21
2.287500000000001
 31
14.5
  0
LINE
  5
1E4
330
168
100
AcDbEntity
  8
Livello 01
100
AcDbLine
 10
-1.320688740771261
 20
2.749232847541293
 30
14.5
 11
-1.320688740771261
 21
3.05
 31
14.5
  0
LINE
  5
1E5
330
168
100
AcDbEntity
  8
Livello 01
100
AcDbLine
 10
-3.049999999999994
 20
0.0
 30
14.5
 11
-3.52183664205671
 21
0.0
 31
14.5
  0
LINE
  5
1E6
330
168
100
AcDbEntity
  8
Livello 01
100
AcDbLine
 10
-3.081607061799623
 20
-0.7624999999999951
 30
14.5
 11
-3.081607061799623
 21
0.7624999999999951
 31
14.5
  0
LINE
  5
1E7
330
168
100
AcDbEntity
  8
Livello 01
100
AcDbLine
 10
-1.76091832102835
 20
-3.049999999999989
 30
11.23333333333334
 11
1.76091832102835
 21
-3.05
 31
11.23333333333334
  0
LINE
  5
1E8
330
168
100
AcDbEntity
  8
Livello 01
100
AcDbLine
 10
0.0
 20
-3.049999999999994
 30
8.23907578645615
 11
0.0
 21
-3.049999999999994
 31
14.5
  0
LINE
  5
1E9
330
168
100
AcDbEntity
  8
Livello 01
100
AcDbLine
 10
-3.521836642056708
 20
0.0000000000000004
 30
11.23333333333334
 11
-1.76091832102835
 21
-3.05
 31
11.23333333333334
  0
LINE
  5
1EA
330
168
100
AcDbEntity
  8
Livello 01
100
AcDbLine
 10
-2.641377481542529
 20
-1.524999999999999
 30
8.239079762260522
 11
-2.641377481542529
 21
-1.524999999999999
 31
14.5
  0
LINE
  5
1EB
330
168
100
AcDbEntity
  8
Livello 01
100
AcDbLine
 10
-1.760918321028347
 20
3.049999999999998
 30
11.23333333333334
 11
-3.52183664205671
 21
0.0000000000000003
 31
11.23333333333334
  0
LINE
  5
1EC
330
168
100
AcDbEntity
  8
Livello 01
100
AcDbLine
 10
-2.641377481542529
 20
1.524999999999999
 30
8.239079762260527
 11
-2.641377481542529
 21
1.524999999999999
 31
14.5
  0
LINE
  5
1ED
330
168
100
AcDbEntity
  8
Livello 01
100
AcDbLine
 10
1.760918321028361
 20
3.049999999999994
 30
11.23333333333334
 11
-1.76091832102835
 21
3.05
 31
11.23333333333334
  0
LINE
  5
1EE
330
168
100
AcDbEntity
  8
Livello 01
100
AcDbLine
 10
0.0000000000000049
 20
3.049999999999997
 30
8.23907578645614
 11
0.0000000000000049
 21
3.049999999999997
 31
14.5
  0
LINE
  5
1EF
330
168
100
AcDbEntity
  8
Livello 01
100
AcDbLine
 10
3.521836642056712
 20
-0.0000000000000145
 30
11.23333333333334
 11
1.76091832102836
 21
3.04999999999999
 31
11.23333333333334
  0
LINE
  5
1F0
330
168
100
AcDbEntity
  8
Livello 01
100
AcDbLine
 10
2.641377481542536
 20
1.524999999999988
 30
8.239079762260523
 11
2.641377481542536
 21
1.524999999999988
 31
14.5
  0
LINE
  5
1F1
330
168
100
AcDbEntity
  8
Livello 01
100
AcDbLine
 10
1.760918321028355
 20
-3.050000000000002
 30
11.23333333333334
 11
3.52183664205672
 21
-0.0000000000000093
 31
11.23333333333334
  0
LINE
  5
1F2
330
168
100
AcDbEntity
  8
Livello 01
100
AcDbLine
 10
2.641377481542538
 20
-1.525000000000006
 30
8.239079762260525
 11
2.641377481542538
 21
-1.525000000000006
 31
14.5
  0
ENDBLK
  5
1F4
330
168
100
AcDbEntity
  8
0
100
AcDbBlockEnd
  0
BLOCK
  5
230
330
1F6
100
AcDbEntity
  8
0
100
AcDbBlockBegin
  2
10GG20760YY
 70
     0
 10
0.0
 20
0.0
 30
0.0
  3
10GG20760YY
  1

  0
CIRCLE
  5
1F7
330
1F6
100
AcDbEntity
  8
Livello 01
 62
   250
420
  3355443
100
AcDbCircle
 10
0.0
 20
0.0
 30
0.300000000000002
 40
14.8
  0
CIRCLE
  5
1F8
330
1F6
100
AcDbEntity
  8
Livello 01
 62
   250
420
  3355443
100
AcDbCircle
 10
0.0
 20
0.0
 30
-5.5
 40
14.8
210
0.0
220
0.0
230
-1.0
  0
LINE
  5
1F9
330
1F6
100
AcDbEntity
  8
Livello 01
 62
   250
420
  3355443
100
AcDbLine
 10
-14.79999999999999
 20
0.0
 30
5.5
 11
-14.79999999999993
 21
0.0
 31
0.3000000000000003
  0
ARC
  5
1FA
330
1F6
100
AcDbEntity
  8
Livello 01
 62
   250
420
  3355443
100
AcDbCircle
 10
0.0
 20
0.0
 30
-5.5
 40
11.6
210
0.0
220
0.0
230
-1.0
100
AcDbArc
 50
180.0
 51
0.0
  0
LINE
  5
1FB
330
1F6
100
AcDbEntity
  8
Livello 01
 62
   250
420
  3355443
100
AcDbLine
 10
10.91235845570622
 20
0.0
 30
4.499999999999987
 11
11.6
 21
0.0
 31
5.5
  0
ARC
  5
1FC
330
1F6
100
AcDbEntity
  8
Livello 01
 62
   250
420
  3355443
100
AcDbCircle
 10
0.0
 20
0.0
 30
-5.5
 40
11.6
210
0.0
220
0.0
230
-1.0
100
AcDbArc
 50
0.0
 51
180.0
  0
CIRCLE
  5
1FD
330
1F6
100
AcDbEntity
  8
Livello 01
 62
   250
420
  3355443
100
AcDbCircle
 10
0.0
 20
0.0
 30
3.5
 40
10.9123584557062
  0
ARC
  5
1FE
330
1F6
100
AcDbEntity
  8
Livello 01
 62
   250
420
  3355443
100
AcDbCircle
 10
0.0
 20
0.0
 30
-4.5
 40
10.9123584557062
210
0.0
220
0.0
230
-1.0
100
AcDbArc
 50
0.0
 51
180.0
  0
LINE
  5
1FF
330
1F6
100
AcDbEntity
  8
Livello 01
 62
   250
420
  3355443
100
AcDbLine
 10
-10.9123584557062
 20
0.0
 30
4.5
 11
-10.9123584557062
 21
0.0
 31
3.5
  0
ARC
  5
200
330
1F6
100
AcDbEntity
  8
Livello 01
 62
   250
420
  3355443
100
AcDbCircle
 10
0.0
 20
0.0
 30
-4.5
 40
10.9123584557062
210
0.0
220
0.0
230
-1.0
100
AcDbArc
 50
180.0
 51
0.0
  0
ARC
  5
201
330
1F6
100
AcDbEntity
  8
Livello 01
 62
   250
420
  3355443
100
AcDbCircle
 10
0.0
 20
0.0
 30
2.0
 40
11.25
100
AcDbArc
 50
0.000000000000014
 51
180.0
  0
ARC
  5
202
330
1F6
100
AcDbEntity
  8
Livello 01
 62
   250
420
  3355443
100
AcDbCircle
 10
0.0
 20
0.0
 30
-3.5
 40
12.3003113073146
210
0.0
220
0.0
230
-1.0
100
AcDbArc
 50
180.0
 51
0.0
  0
LINE
  5
203
330
1F6
100
AcDbEntity
  8
Livello 01
 62
   250
420
  3355443
100
AcDbLine
 10
11.25000000000002
 20
0.0
 30
1.999999999999981
 11
12.3003113073146
 21
0.0
 31
3.499999999999998
  0
ARC
  5
204
330
1F6
100
AcDbEntity
  8
Livello 01
 62
   250
420
  3355443
100
AcDbCircle
 10
0.0
 20
0.0
 30
2.0
 40
11.25
100
AcDbArc
 50
180.0
 51
0.0
  0
ARC
  5
205
330
1F6
100
AcDbEntity
  8
Livello 01
 62
   250
420
  3355443
100
AcDbCircle
 10
0.0
 20
0.0
 30
-3.5
 40
12.3003113073146
210
0.0
220
0.0
230
-1.0
100
AcDbArc
 50
0.0
 51
180.0
  0
CIRCLE
  5
206
330
1F6
100
AcDbEntity
  8
Livello 01
 62
   250
420
  3355443
100
AcDbCircle
 10
0.0
 20
0.0
 30
0.0
 40
9.25
  0
CIRCLE
  5
207
330
1F6
100
AcDbEntity
  8
Livello 01
 62
   250
420
  3355443
100
AcDbCircle
 10
0.0
 20
0.0
 30
-2.0
 40
9.25
210
0.0
220
0.0
230
-1.0
  0
LINE
  5
208
330
1F6
100
AcDbEntity
  8
Livello 01
 62
   250
420
  3355443
100
AcDbLine
 10
-9.25
 20
0.0
 30
2.0
 11
-9.25
 21
0.0
 31
-0.0000000000000002
  0
ARC
  5
209
330
1F6
100
AcDbEntity
  8
Livello 01
 62
   250
420
  3355443
100
AcDbCircle
 10
-14.5
 20
0.300000000000002
 30
0.0
 40
0.3
210
0.0
220
-1.0
230
0.0
100
AcDbArc
 50
180.0
 51
270.0
  0
CIRCLE
  5
20A
330
1F6
100
AcDbEntity
  8
Livello 01
 62
   250
420
  3355443
100
AcDbCircle
 10
0.0
 20
0.0
 30
0.0
 40
14.5
210
0.0
220
0.0
230
-1.0
  0
LINE
  5
20B
330
1F6
100
AcDbEntity
  8
Livello 01
 62
   250
420
  3355443
100
AcDbLine
 10
14.5
 20
-0.0000000000000018
 30
0.0
 11
9.25
 21
-0.0000000000000018
 31
0.0
  0
LINE
  5
20C
330
1F6
100
AcDbEntity
  8
Livello 01
 62
   250
420
  3355443
100
AcDbLine
 10
-9.249999999999998
 20
-0.0000000000000018
 30
0.0
 11
-14.5
 21
-0.0000000000000018
 31
0.0
  0
LINE
  5
20D
330
1F6
100
AcDbEntity
  8
Livello 01
 62
   250
420
  3355443
100
AcDbLine
 10
0.0000000000000018
 20
-14.5
 30
0.0
 11
0.0000000000000018
 21
-9.25
 31
0.0
  0
LINE
  5
20E
330
1F6
100
AcDbEntity
  8
Livello 01
 62
   250
420
  3355443
100
AcDbLine
 10
0.0000000000000018
 20
9.249999999999998
 30
0.0
 11
0.0000000000000018
 21
14.5
 31
0.0
  0
CIRCLE
  5
20F
330
1F6
100
AcDbEntity
  8
Livello 01
 62
   250
420
  3355443
100
AcDbCircle
 10
-0.0000000000000387
 20
0.0
 30
-2.899999999999997
 40
14.8
210
0.0
220
0.0
230
-1.0
  0
LINE
  5
210
330
1F6
100
AcDbEntity
  8
Livello 01
 62
   250
420
  3355443
100
AcDbLine
 10
0.0000000000000071
 20
14.8
 30
5.50000000000018
 11
0.0000000000000703
 21
14.8
 31
0.300000000000181
  0
LINE
  5
211
330
1F6
100
AcDbEntity
  8
Livello 01
 62
   250
420
  3355443
100
AcDbLine
 10
14.80000000000001
 20
0.0
 30
5.500000000000361
 11
14.80000000000007
 21
0.0
 31
0.3000000000003609
  0
LINE
  5
212
330
1F6
100
AcDbEntity
  8
Livello 01
 62
   250
420
  3355443
100
AcDbLine
 10
0.0000000000000071
 20
-14.8
 30
5.50000000000018
 11
0.0000000000000703
 21
-14.8
 31
0.300000000000181
  0
LINE
  5
213
330
1F6
100
AcDbEntity
  8
Livello 01
 62
   250
420
  3355443
100
AcDbLine
 10
-14.8
 20
-0.0000000000000018
 30
5.5
 11
-11.6
 21
-0.0000000000000018
 31
5.5
  0
LINE
  5
214
330
1F6
100
AcDbEntity
  8
Livello 01
 62
   250
420
  3355443
100
AcDbLine
 10
11.6
 20
-0.0000000000000018
 30
5.5
 11
14.8
 21
-0.0000000000000018
 31
5.5
  0
LINE
  5
215
330
1F6
100
AcDbEntity
  8
Livello 01
 62
   250
420
  3355443
100
AcDbLine
 10
0.0
 20
-14.8
 30
5.5
 11
0.0
 21
-11.6
 31
5.5
  0
LINE
  5
216
330
1F6
100
AcDbEntity
  8
Livello 01
 62
   250
420
  3355443
100
AcDbLine
 10
0.0
 20
11.6
 30
5.5
 11
0.0
 21
14.8
 31
5.5
  0
LINE
  5
217
330
1F6
100
AcDbEntity
  8
Livello 01
 62
   250
420
  3355443
100
AcDbLine
 10
0.0
 20
10.91235845570622
 30
4.499999999999986
 11
0.0
 21
11.6
 31
5.500000000000001
  0
LINE
  5
218
330
1F6
100
AcDbEntity
  8
Livello 01
 62
   250
420
  3355443
100
AcDbLine
 10
-10.91235845570622
 20
0.0
 30
4.499999999999986
 11
-11.6
 21
0.0
 31
5.500000000000001
  0
LINE
  5
219
330
1F6
100
AcDbEntity
  8
Livello 01
 62
   250
420
  3355443
100
AcDbLine
 10
0.0
 20
-10.91235845570622
 30
4.499999999999986
 11
0.0
 21
-11.6
 31
5.500000000000001
  0
CIRCLE
  5
21A
330
1F6
100
AcDbEntity
  8
Livello 01
 62
   250
420
  3355443
100
AcDbCircle
 10
0.0
 20
0.0
 30
-4.0
 40
10.9123584557062
210
0.0
220
0.0
230
-1.0
  0
LINE
  5
21B
330
1F6
100
AcDbEntity
  8
Livello 01
 62
   250
420
  3355443
100
AcDbLine
 10
0.0
 20
10.9123584557062
 30
4.5
 11
0.0
 21
10.9123584557062
 31
3.5
  0
LINE
  5
21C
330
1F6
100
AcDbEntity
  8
Livello 01
 62
   250
420
  3355443
100
AcDbLine
 10
10.9123584557062
 20
0.0
 30
4.5
 11
10.9123584557062
 21
0.0
 31
3.5
  0
LINE
  5
21D
330
1F6
100
AcDbEntity
  8
Livello 01
 62
   250
420
  3355443
100
AcDbLine
 10
0.0
 20
-10.9123584557062
 30
4.5
 11
0.0
 21
-10.9123584557062
 31
3.5
  0
LINE
  5
21E
330
1F6
100
AcDbEntity
  8
Livello 01
 62
   250
420
  3355443
100
AcDbLine
 10
12.3003113073146
 20
-0.0000000000000009
 30
3.5
 11
10.9123584557062
 21
-0.0000000000000009
 31
3.5
  0
LINE
  5
21F
330
1F6
100
AcDbEntity
  8
Livello 01
 62
   250
420
  3355443
100
AcDbLine
 10
-10.9123584557062
 20
-0.0000000000000009
 30
3.5
 11
-12.3003113073146
 21
-0.0000000000000009
 31
3.5
  0
LINE
  5
220
330
1F6
100
AcDbEntity
  8
Livello 01
 62
   250
420
  3355443
100
AcDbLine
 10
0.0000000000000018
 20
-12.3003113073146
 30
3.5
 11
0.0000000000000018
 21
-10.9123584557062
 31
3.5
  0
LINE
  5
221
330
1F6
100
AcDbEntity
  8
Livello 01
 62
   250
420
  3355443
100
AcDbLine
 10
0.0000000000000018
 20
10.9123584557062
 30
3.5
 11
0.0000000000000018
 21
12.3003113073146
 31
3.5
  0
LINE
  5
222
330
1F6
100
AcDbEntity
  8
Livello 01
 62
   250
420
  3355443
100
AcDbLine
 10
0.0
 20
11.25000000000002
 30
1.999999999999984
 11
0.0
 21
12.3003113073146
 31
3.499999999999996
  0
LINE
  5
223
330
1F6
100
AcDbEntity
  8
Livello 01
 62
   250
420
  3355443
100
AcDbLine
 10
-11.25000000000002
 20
0.0
 30
1.999999999999984
 11
-12.3003113073146
 21
0.0
 31
3.499999999999996
  0
LINE
  5
224
330
1F6
100
AcDbEntity
  8
Livello 01
 62
   250
420
  3355443
100
AcDbLine
 10
0.0
 20
-11.25000000000002
 30
1.999999999999984
 11
0.0
 21
-12.3003113073146
 31
3.499999999999996
  0
LINE
  5
225
330
1F6
100
AcDbEntity
  8
Livello 01
 62
   250
420
  3355443
100
AcDbLine
 10
-11.25
 20
0.0
 30
2.0
 11
-9.25
 21
0.0
 31
2.0
  0
LINE
  5
226
330
1F6
100
AcDbEntity
  8
Livello 01
 62
   250
420
  3355443
100
AcDbLine
 10
9.25
 20
0.0
 30
2.0
 11
11.25
 21
0.0
 31
2.0
  0
LINE
  5
227
330
1F6
100
AcDbEntity
  8
Livello 01
 62
   250
420
  3355443
100
AcDbLine
 10
0.0
 20
-11.25
 30
2.0
 11
0.0
 21
-9.25
 31
2.0
  0
LINE
  5
228
330
1F6
100
AcDbEntity
  8
Livello 01
 62
   250
420
  3355443
100
AcDbLine
 10
0.0
 20
9.249999999999998
 30
2.0
 11
0.0
 21
11.25
 31
2.0
  0
CIRCLE
  5
229
330
1F6
100
AcDbEntity
  8
Livello 01
 62
   250
420
  3355443
100
AcDbCircle
 10
0.0
 20
0.0
 30
-1.0
 40
9.25
210
0.0
220
0.0
230
-1.0
  0
LINE
  5
22A
330
1F6
100
AcDbEntity
  8
Livello 01
 62
   250
420
  3355443
100
AcDbLine
 10
0.0
 20
9.25
 30
2.0
 11
0.0
 21
9.25
 31
0.0
  0
LINE
  5
22B
330
1F6
100
AcDbEntity
  8
Livello 01
 62
   250
420
  3355443
100
AcDbLine
 10
9.25
 20
0.0
 30
2.0
 11
9.25
 21
0.0
 31
0.0
  0
LINE
  5
22C
330
1F6
100
AcDbEntity
  8
Livello 01
 62
   250
420
  3355443
100
AcDbLine
 10
0.0
 20
-9.25
 30
2.0
 11
0.0
 21
-9.25
 31
0.0
  0
ARC
  5
22D
330
1F6
100
AcDbEntity
  8
Livello 01
 62
   250
420
  3355443
100
AcDbCircle
 10
-14.5
 20
0.300000000000002
 30
0.0
 40
0.3
210
-1.0
220
0.0
230
0.0
100
AcDbArc
 50
180.0
 51
270.0
  0
ARC
  5
22E
330
1F6
100
AcDbEntity
  8
Livello 01
 62
   250
420
  3355443
100
AcDbCircle
 10
-14.5
 20
0.300000000000002
 30
0.0
 40
0.3
210
0.0
220
1.0
230
0.0
100
AcDbArc
 50
180.0
 51
270.0
  0
ARC
  5
22F
330
1F6
100
AcDbEntity
  8
Livello 01
 62
   250
420
  3355443
100
AcDbCircle
 10
-14.5
 20
0.300000000000002
 30
0.0
 40
0.3
210
1.0
220
0.0
230
0.0
100
AcDbArc
 50
180.0
 51
270.0
  0
ENDBLK
  5
231
330
1F6
100
AcDbEntity
  8
0
100
AcDbBlockEnd
  0
BLOCK
  5
23C
330
233
100
AcDbEntity
  8
0
100
AcDbBlockBegin
  2
10OR0126000
 70
     0
 10
0.0
 20
0.0
 30
0.0
  3
10OR0126000
  1

  0
CIRCLE
  5
234
330
233
100
AcDbEntity
  8
Livello 01
 62
     9
420
 12632256
100
AcDbCircle
 10
0.0
 20
0.0
 30
0.89
 40
8.78
  0
CIRCLE
  5
235
330
233
100
AcDbEntity
  8
Livello 01
 62
     9
420
 12632256
100
AcDbCircle
 10
7.89
 20
0.89
 30
0.0
 40
0.89
210
0.0
220
-1.0
230
0.0
  0
CIRCLE
  5
236
330
233
100
AcDbEntity
  8
Livello 01
 62
     9
420
 12632256
100
AcDbCircle
 10
0.0
 20
0.0
 30
1.78
 40
7.89
  0
CIRCLE
  5
237
330
233
100
AcDbEntity
  8
Livello 01
 62
     9
420
 12632256
100
AcDbCircle
 10
0.0
 20
0.0
 30
0.89
 40
7.0
  0
CIRCLE
  5
238
330
233
100
AcDbEntity
  8
Livello 01
 62
     9
420
 12632256
100
AcDbCircle
 10
0.0
 20
0.0
 30
0.0
 40
7.89
  0
CIRCLE
  5
239
330
233
100
AcDbEntity
  8
Livello 01
 62
     9
420
 12632256
100
AcDbCircle
 10
7.89
 20
0.89
 30
0.0
 40
0.89
210
1.0
220
0.0
230
0.0
  0
CIRCLE
  5
23A
330
233
100
AcDbEntity
  8
Livello 01
 62
     9
420
 12632256
100
AcDbCircle
 10
7.89
 20
0.89
 30
0.0
 40
0.89
210
0.0
220
1.0
230
0.0
  0
CIRCLE
  5
23B
330
233
100
AcDbEntity
  8
Livello 01
 62
     9
420
 12632256
100
AcDbCircle
 10
7.89
 20
0.89
 30
0.0
 40
0.89
210
-1.0
220
0.0
230
0.0
  0
ENDBLK
  5
23D
330
233
100
AcDbEntity
  8
0
100
AcDbBlockEnd
  0
BLOCK
  5
24B
330
242
100
AcDbEntity
  8
0
100
AcDbBlockBegin
  2
10OR0076000
 70
     0
 10
0.0
 20
0.0
 30
0.0
  3
10OR0076000
  1

  0
CIRCLE
  5
243
330
242
100
AcDbEntity
  8
Livello 01
 62
     9
420
 12632256
100
AcDbCircle
 10
0.0
 20
0.0
 30
0.89
 40
6.404999999999999
  0
CIRCLE
  5
244
330
242
100
AcDbEntity
  8
Livello 01
 62
     9
420
 12632256
100
AcDbCircle
 10
5.515
 20
0.89
 30
0.0
 40
0.89
210
0.0
220
-1.0
230
0.0
  0
CIRCLE
  5
245
330
242
100
AcDbEntity
  8
Livello 01
 62
     9
420
 12632256
100
AcDbCircle
 10
0.0
 20
0.0
 30
1.78
 40
5.515
  0
CIRCLE
  5
246
330
242
100
AcDbEntity
  8
Livello 01
 62
     9
420
 12632256
100
AcDbCircle
 10
0.0
 20
0.0
 30
0.89
 40
4.625
  0
CIRCLE
  5
247
330
242
100
AcDbEntity
  8
Livello 01
 62
     9
420
 12632256
100
AcDbCircle
 10
0.0
 20
0.0
 30
0.0
 40
5.515
  0
CIRCLE
  5
248
330
242
100
AcDbEntity
  8
Livello 01
 62
     9
420
 12632256
100
AcDbCircle
 10
5.515
 20
0.89
 30
0.0
 40
0.89
210
1.0
220
0.0
230
0.0
  0
CIRCLE
  5
249
330
242
100
AcDbEntity
  8
Livello 01
 62
     9
420
 12632256
100
AcDbCircle
 10
5.515
 20
0.89
 30
0.0
 40
0.89
210
0.0
220
1.0
230
0.0
  0
CIRCLE
  5
24A
330
242
100
AcDbEntity
  8
Livello 01
 62
     9
420
 12632256
100
AcDbCircle
 10
5.515
 20
0.89
 30
0.0
 40
0.89
210
-1.0
220
0.0
230
0.0
  0
ENDBLK
  5
24C
330
242
100
AcDbEntity
  8
0
100
AcDbBlockEnd
  0
BLOCK
  5
291
330
24E
100
AcDbEntity
  8
0
100
AcDbBlockBegin
  2
10BO00860YY
 70
     0
 10
0.0
 20
0.0
 30
0.0
  3
10BO00860YY
  1

  0
CIRCLE
  5
24F
330
24E
100
AcDbEntity
  8
Livello 01
 62
     9
420
 12632256
100
AcDbCircle
 10
0.000000000000004
 20
0.0
 30
-11.0
 40
30.0
210
0.0
220
-1.0
230
0.0
  0
CIRCLE
  5
250
330
24E
100
AcDbEntity
  8
Livello 01
 62
     9
420
 12632256
100
AcDbCircle
 10
0.0000000000000033
 20
0.0
 30
0.0
 40
30.0
210
0.0
220
-1.0
230
0.0
  0
LINE
  5
251
330
24E
100
AcDbEntity
  8
Livello 01
 62
     9
420
 12632256
100
AcDbLine
 10
30.0
 20
11.0
 30
0.0
 11
30.0
 21
0.0000000000000027
 31
0.0
  0
CIRCLE
  5
252
330
24E
100
AcDbEntity
  8
Livello 01
 62
     9
420
 12632256
100
AcDbCircle
 10
0.000000000000004
 20
0.0
 30
-12.0
 40
29.0
210
0.0
220
-1.0
230
0.0
  0
ARC
  5
253
330
24E
100
AcDbEntity
  8
Livello 01
 62
     9
420
 12632256
100
AcDbCircle
 10
-29.0
 20
11.0
 30
0.0
 40
1.0
210
0.0
220
0.0
230
-1.0
100
AcDbArc
 50
90.0
 51
180.0
  0
CIRCLE
  5
254
330
24E
100
AcDbEntity
  8
Livello 01
 62
     9
420
 12632256
100
AcDbCircle
 10
-0.0000000000000039
 20
0.0
 30
10.0
 40
10.6
210
0.0
220
1.0
230
0.0
  0
CIRCLE
  5
255
330
24E
100
AcDbEntity
  8
Livello 01
 62
     9
420
 12632256
100
AcDbCircle
 10
0.000000000000004
 20
0.0
 30
-12.0
 40
10.6
210
0.0
220
-1.0
230
0.0
  0
LINE
  5
256
330
24E
100
AcDbEntity
  8
Livello 01
 62
     9
420
 12632256
100
AcDbLine
 10
10.6
 20
12.0
 30
0.0
 11
10.6
 21
10.0
 31
0.0
  0
LINE
  5
257
330
24E
100
AcDbEntity
  8
Livello 01
 62
     9
420
 12632256
100
AcDbLine
 10
10.6
 20
9.999999999999998
 30
0.0
 11
11.17735026918962
 21
9.000000000000007
 31
0.0
  0
ARC
  5
258
330
24E
100
AcDbEntity
  8
Livello 01
 62
     9
420
 12632256
100
AcDbCircle
 10
-0.0000000000000039
 20
0.0
 30
9.0
 40
11.1773502691896
210
0.0
220
1.0
230
0.0
100
AcDbArc
 50
0.000000000000014
 51
180.0
  0
LINE
  5
259
330
24E
100
AcDbEntity
  8
Livello 01
 62
     9
420
 12632256
100
AcDbLine
 10
-11.1773502691896
 20
9.0
 30
0.0
 11
-11.60039657687548
 21
9.244245899622124
 31
0.0
  0
ARC
  5
25A
330
24E
100
AcDbEntity
  8
Livello 01
 62
     9
420
 12632256
100
AcDbCircle
 10
-0.0000000000000039
 20
0.0
 30
9.0
 40
11.1773502691896
210
0.0
220
1.0
230
0.0
100
AcDbArc
 50
180.0
 51
0.0
  0
CIRCLE
  5
25B
330
24E
100
AcDbEntity
  8
Livello 01
 62
     9
420
 12632256
100
AcDbCircle
 10
0.0000000000000039
 20
0.0
 30
-10.110958194704
 40
11.1
210
0.0
220
-1.0
230
0.0
  0
ARC
  5
25C
330
24E
100
AcDbEntity
  8
Livello 01
 62
     9
420
 12632256
100
AcDbCircle
 10
-0.0000000000000039
 20
0.0
 30
9.2442458996221
 40
11.6003965768755
210
0.0
220
1.0
230
0.0
100
AcDbArc
 50
180.0
 51
0.000000000000007
  0
LINE
  5
25D
330
24E
100
AcDbEntity
  8
Livello 01
 62
     9
420
 12632256
100
AcDbLine
 10
11.10000000000001
 20
10.110958194704
 30
0.0
 11
11.6003965768755
 21
9.2442458996221
 31
0.0
  0
ARC
  5
25E
330
24E
100
AcDbEntity
  8
Livello 01
 62
     9
420
 12632256
100
AcDbCircle
 10
-0.0000000000000039
 20
0.0
 30
9.2442458996221
 40
11.6003965768755
210
0.0
220
1.0
230
0.0
100
AcDbArc
 50
0.000000000000007
 51
180.0
  0
CIRCLE
  5
25F
330
24E
100
AcDbEntity
  8
Livello 01
 62
     9
420
 12632256
100
AcDbCircle
 10
0.000000000000004
 20
0.0
 30
-11.5
 40
11.1
210
0.0
220
-1.0
230
0.0
  0
LINE
  5
260
330
24E
100
AcDbEntity
  8
Livello 01
 62
     9
420
 12632256
100
AcDbLine
 10
11.1
 20
11.5
 30
0.0
 11
11.1
 21
10.110958194704
 31
0.0
  0
CIRCLE
  5
261
330
24E
100
AcDbEntity
  8
Livello 01
 62
     9
420
 12632256
100
AcDbCircle
 10
0.000000000000004
 20
0.0
 30
-11.0
 40
29.5
210
0.0
220
-1.0
230
0.0
  0
CIRCLE
  5
262
330
24E
100
AcDbEntity
  8
Livello 01
 62
     9
420
 12632256
100
AcDbCircle
 10
0.000000000000004
 20
0.0
 30
-11.5
 40
29.0
210
0.0
220
-1.0
230
0.0
  0
ARC
  5
263
330
24E
100
AcDbEntity
  8
Livello 01
 62
     9
420
 12632256
100
AcDbCircle
 10
-29.0
 20
11.0
 30
0.0
 40
0.5
210
0.0
220
0.0
230
-1.0
100
AcDbArc
 50
90.0
 51
180.0
  0
CIRCLE
  5
264
330
24E
100
AcDbEntity
  8
Livello 01
 62
     9
420
 12632256
100
AcDbCircle
 10
-0.0000000000000033
 20
0.0
 30
0.0
 40
29.5
210
0.0
220
1.0
230
0.0
  0
LINE
  5
265
330
24E
100
AcDbEntity
  8
Livello 01
 62
     9
420
 12632256
100
AcDbLine
 10
29.5
 20
11.0
 30
0.0
 11
29.5
 21
0.0000000000000027
 31
0.0
  0
LINE
  5
266
330
24E
100
AcDbEntity
  8
Livello 01
 62
     9
420
 12632256
100
AcDbLine
 10
-30.0
 20
0.0
 30
0.0
 11
-29.5
 21
0.0
 31
0.0
  0
LINE
  5
267
330
24E
100
AcDbEntity
  8
Livello 01
 62
     9
420
 12632256
100
AcDbLine
 10
29.50000000000001
 20
-0.0000000000000036
 30
0.0
 11
30.00000000000001
 21
-0.0000000000000036
 31
0.0
  0
LINE
  5
268
330
24E
100
AcDbEntity
  8
Livello 01
 62
     9
420
 12632256
100
AcDbLine
 10
0.0
 20
-0.0000000000000018
 30
-30.0
 11
0.0
 21
-0.0000000000000018
 31
-29.5
  0
LINE
  5
269
330
24E
100
AcDbEntity
  8
Livello 01
 62
     9
420
 12632256
100
AcDbLine
 10
0.0
 20
-0.0000000000000018
 30
29.50000000000001
 11
0.0
 21
-0.0000000000000018
 31
30.00000000000001
  0
CIRCLE
  5
26A
330
24E
100
AcDbEntity
  8
Livello 01
 62
     9
420
 12632256
100
AcDbCircle
 10
-0.000000000000003
 20
0.0
 30
-5.5
 40
30.0
210
0.0
220
-1.0
230
0.0
  0
LINE
  5
26B
330
24E
100
AcDbEntity
  8
Livello 01
 62
     9
420
 12632256
100
AcDbLine
 10
-0.0000000000000026
 20
11.0
 30
30.0
 11
-0.0000000000000033
 21
0.0000000000000016
 31
30.0
  0
LINE
  5
26C
330
24E
100
AcDbEntity
  8
Livello 01
 62
     9
420
 12632256
100
AcDbLine
 10
-30.0
 20
11.0
 30
0.0
 11
-30.0
 21
0.0000000000000031
 31
0.0
  0
LINE
  5
26D
330
24E
100
AcDbEntity
  8
Livello 01
 62
     9
420
 12632256
100
AcDbLine
 10
-0.0000000000000026
 20
11.0
 30
-30.0
 11
-0.0000000000000033
 21
0.0000000000000016
 31
-30.0
  0
ARC
  5
26E
330
24E
100
AcDbEntity
  8
Livello 01
 62
     9
420
 12632256
100
AcDbCircle
 10
11.0
 20
29.0
 30
0.0000000000000035
 40
1.0
210
1.0
220
0.0
230
0.0
100
AcDbArc
 50
0.0
 51
90.0
  0
ARC
  5
26F
330
24E
100
AcDbEntity
  8
Livello 01
 62
     9
420
 12632256
100
AcDbCircle
 10
-29.0
 20
11.0
 30
0.0
 40
1.0
100
AcDbArc
 50
90.0
 51
180.0
  0
ARC
  5
270
330
24E
100
AcDbEntity
  8
Livello 01
 62
     9
420
 12632256
100
AcDbCircle
 10
-11.0
 20
-29.0
 30
-0.0000000000000035
 40
1.0
210
-1.0
220
0.0
230
0.0
100
AcDbArc
 50
180.0
 51
270.0
  0
LINE
  5
271
330
24E
100
AcDbEntity
  8
Livello 01
 62
     9
420
 12632256
100
AcDbLine
 10
28.99999999999999
 20
12.0
 30
-0.0000000000000036
 11
10.6
 21
12.0
 31
-0.0000000000000036
  0
LINE
  5
272
330
24E
100
AcDbEntity
  8
Livello 01
 62
     9
420
 12632256
100
AcDbLine
 10
-10.59999999999999
 20
12.0
 30
-0.0000000000000036
 11
-28.99999999999999
 21
12.0
 31
-0.0000000000000036
  0
LINE
  5
273
330
24E
100
AcDbEntity
  8
Livello 01
 62
     9
420
 12632256
100
AcDbLine
 10
0.0000000000000071
 20
12.0
 30
-29.0
 11
0.0000000000000071
 21
12.0
 31
-10.6
  0
LINE
  5
274
330
24E
100
AcDbEntity
  8
Livello 01
 62
     9
420
 12632256
100
AcDbLine
 10
0.0000000000000071
 20
12.0
 30
10.6
 11
0.0000000000000071
 21
12.0
 31
29.0
  0
CIRCLE
  5
275
330
24E
100
AcDbEntity
  8
Livello 01
 62
     9
420
 12632256
100
AcDbCircle
 10
-0.0000000000000026
 20
0.0
 30
-11.0
 40
10.6
210
0.0
220
-1.0
230
0.0
  0
LINE
  5
276
330
24E
100
AcDbEntity
  8
Livello 01
 62
     9
420
 12632256
100
AcDbLine
 10
-0.0000000000000026
 20
12.0
 30
10.6
 11
-0.0000000000000026
 21
10.0
 31
10.6
  0
LINE
  5
277
330
24E
100
AcDbEntity
  8
Livello 01
 62
     9
420
 12632256
100
AcDbLine
 10
-10.6
 20
12.0
 30
0.0
 11
-10.6
 21
10.0
 31
0.0
  0
LINE
  5
278
330
24E
100
AcDbEntity
  8
Livello 01
 62
     9
420
 12632256
100
AcDbLine
 10
-0.0000000000000026
 20
12.0
 30
-10.6
 11
-0.0000000000000026
 21
10.0
 31
-10.6
  0
LINE
  5
279
330
24E
100
AcDbEntity
  8
Livello 01
 62
     9
420
 12632256
100
AcDbLine
 10
0.0000000000000039
 20
10.0
 30
10.6
 11
0.0000000000000039
 21
9.000000000000012
 31
11.17735026918962
  0
LINE
  5
27A
330
24E
100
AcDbEntity
  8
Livello 01
 62
     9
420
 12632256
100
AcDbLine
 10
-10.6
 20
10.0
 30
0.0
 11
-11.17735026918961
 21
9.000000000000014
 31
0.0
  0
LINE
  5
27B
330
24E
100
AcDbEntity
  8
Livello 01
 62
     9
420
 12632256
100
AcDbLine
 10
0.0000000000000039
 20
10.0
 30
-10.6
 11
0.0000000000000039
 21
9.000000000000012
 31
-11.17735026918962
  0
LINE
  5
27C
330
24E
100
AcDbEntity
  8
Livello 01
 62
     9
420
 12632256
100
AcDbLine
 10
0.0000000000000039
 20
9.0
 30
11.1773502691896
 11
0.0000000000000039
 21
9.244245899622122
 31
11.60039657687549
  0
LINE
  5
27D
330
24E
100
AcDbEntity
  8
Livello 01
 62
     9
420
 12632256
100
AcDbLine
 10
11.1773502691896
 20
8.999999999999998
 30
0.0
 11
11.60039657687549
 21
9.24424589962212
 31
0.0
  0
LINE
  5
27E
330
24E
100
AcDbEntity
  8
Livello 01
 62
     9
420
 12632256
100
AcDbLine
 10
0.0000000000000039
 20
9.0
 30
-11.1773502691896
 11
0.0000000000000039
 21
9.244245899622122
 31
-11.60039657687549
  0
LINE
  5
27F
330
24E
100
AcDbEntity
  8
Livello 01
 62
     9
420
 12632256
100
AcDbLine
 10
0.0000000000000039
 20
10.11095819470401
 30
11.1
 11
0.0000000000000039
 21
9.244245899622106
 31
11.6003965768755
  0
LINE
  5
280
330
24E
100
AcDbEntity
  8
Livello 01
 62
     9
420
 12632256
100
AcDbLine
 10
-11.1
 20
10.11095819470401
 30
0.0
 11
-11.60039657687549
 21
9.244245899622106
 31
0.0
  0
LINE
  5
281
330
24E
100
AcDbEntity
  8
Livello 01
 62
     9
420
 12632256
100
AcDbLine
 10
0.0000000000000039
 20
10.11095819470401
 30
-11.1
 11
0.0000000000000039
 21
9.244245899622106
 31
-11.6003965768755
  0
CIRCLE
  5
282
330
24E
100
AcDbEntity
  8
Livello 01
 62
     9
420
 12632256
100
AcDbCircle
 10
-0.0000000000000026
 20
0.0
 30
-10.805479097352
 40
11.1
210
0.0
220
-1.0
230
0.0
  0
LINE
  5
283
330
24E
100
AcDbEntity
  8
Livello 01
 62
     9
420
 12632256
100
AcDbLine
 10
-0.0000000000000026
 20
11.5
 30
11.1
 11
-0.0000000000000026
 21
10.110958194704
 31
11.1
  0
LINE
  5
284
330
24E
100
AcDbEntity
  8
Livello 01
 62
     9
420
 12632256
100
AcDbLine
 10
-11.1
 20
11.5
 30
0.0
 11
-11.1
 21
10.110958194704
 31
0.0
  0
LINE
  5
285
330
24E
100
AcDbEntity
  8
Livello 01
 62
     9
420
 12632256
100
AcDbLine
 10
-0.0000000000000026
 20
11.5
 30
-11.1
 11
-0.0000000000000026
 21
10.110958194704
 31
-11.1
  0
LINE
  5
286
330
24E
100
AcDbEntity
  8
Livello 01
 62
     9
420
 12632256
100
AcDbLine
 10
-28.99999999999999
 20
11.5
 30
-0.0000000000000036
 11
-11.1
 21
11.5
 31
-0.0000000000000036
  0
LINE
  5
287
330
24E
100
AcDbEntity
  8
Livello 01
 62
     9
420
 12632256
100
AcDbLine
 10
11.10000000000001
 20
11.5
 30
-0.0000000000000036
 11
29.0
 21
11.5
 31
-0.0000000000000036
  0
LINE
  5
288
330
24E
100
AcDbEntity
  8
Livello 01
 62
     9
420
 12632256
100
AcDbLine
 10
0.0000000000000071
 20
11.5
 30
-29.0
 11
0.0000000000000071
 21
11.5
 31
-11.1
  0
LINE
  5
289
330
24E
100
AcDbEntity
  8
Livello 01
 62
     9
420
 12632256
100
AcDbLine
 10
0.0000000000000071
 20
11.5
 30
11.1
 11
0.0000000000000071
 21
11.5
 31
29.0
  0
ARC
  5
28A
330
24E
100
AcDbEntity
  8
Livello 01
 62
     9
420
 12632256
100
AcDbCircle
 10
11.0
 20
29.0
 30
0.0000000000000035
 40
0.5
210
1.0
220
0.0
230
0.0
100
AcDbArc
 50
0.0
 51
90.0
  0
ARC
  5
28B
330
24E
100
AcDbEntity
  8
Livello 01
 62
     9
420
 12632256
100
AcDbCircle
 10
-29.0
 20
11.0
 30
0.0
 40
0.5
100
AcDbArc
 50
90.0
 51
180.0
  0
ARC
  5
28C
330
24E
100
AcDbEntity
  8
Livello 01
 62
     9
420
 12632256
100
AcDbCircle
 10
-11.0
 20
-29.0
 30
-0.0000000000000035
 40
0.5
210
-1.0
220
0.0
230
0.0
100
AcDbArc
 50
180.0
 51
270.0
  0
CIRCLE
  5
28D
330
24E
100
AcDbEntity
  8
Livello 01
 62
     9
420
 12632256
100
AcDbCircle
 10
-0.000000000000003
 20
0.0
 30
-5.5
 40
29.5
210
0.0
220
-1.0
230
0.0
  0
LINE
  5
28E
330
24E
100
AcDbEntity
  8
Livello 01
 62
     9
420
 12632256
100
AcDbLine
 10
-0.0000000000000026
 20
11.0
 30
29.5
 11
-0.0000000000000033
 21
0.0000000000000016
 31
29.5
  0
LINE
  5
28F
330
24E
100
AcDbEntity
  8
Livello 01
 62
     9
420
 12632256
100
AcDbLine
 10
-29.5
 20
11.0
 30
0.0
 11
-29.5
 21
0.0000000000000031
 31
0.0
  0
LINE
  5
290
330
24E
100
AcDbEntity
  8
Livello 01
 62
     9
420
 12632256
100
AcDbLine
 10
-0.0000000000000026
 20
11.0
 30
-29.5
 11
-0.0000000000000033
 21
0.0000000000000016
 31
-29.5
  0
ENDBLK
  5
292
330
24E
100
AcDbEntity
  8
0
100
AcDbBlockEnd
  0
ENDSEC
  0
SECTION
  2
ENTITIES
  0
INSERT
  5
299
330
1F
100
AcDbEntity
  8
Livello 01
100
AcDbBlockReference
  2
3600BR01-00
 10
0.0
 20
0.0
 30
0.0
  0
ENDSEC
  0
SECTION
  2
OBJECTS
  0
DICTIONARY
  5
C
330
0
100
AcDbDictionary
281
     1
  3
ACAD_DETAILVIEWSTYLE
350
2D5
  3
ACAD_GROUP
350
D
  3
ACAD_LAYOUT
350
1A
  3
ACAD_MATERIAL
350
43
  3
ACAD_MLEADERSTYLE
350
5B
  3
ACAD_MLINESTYLE
350
17
  3
ACAD_PLOTSETTINGS
350
19
  3
ACAD_PLOTSTYLENAME
350
E
  3
ACAD_SCALELIST
350
47
  3
ACAD_SECTIONVIEWSTYLE
350
2D6
  3
ACAD_TABLESTYLE
350
59
  3
ACAD_VISUALSTYLE
350
2A
  3
ACDB_RECOMPOSE_DATA
350
2D2
  3
AcDbVariableDictionary
350
29A
  0
SUN
  5
5D
330
29
100
AcDbSun
 90
        1
290
     0
 63
     7
421
 16777215
 40
1.0
291
     1
 91
  2455826
 92
 54000000
292
     0
 70
     2
 71
   256
280
     1
  0
DICTIONARY
  5
2D5
102
{ACAD_REACTORS
330
C
102
}
330
C
100
AcDbDictionary
281
     1
  0
DICTIONARY
  5
D
102
{ACAD_REACTORS
330
C
102
}
330
C
100
AcDbDictionary
281
     1
  0
DICTIONARY
  5
1A
102
{ACAD_REACTORS
330
C
102
}
330
C
100
AcDbDictionary
281
     1
  3
Layout1
350
1E
  3
Layout2
350
26
  3
Model
350
22
  0
DICTIONARY
  5
43
102
{ACAD_REACTORS
330
C
102
}
330
C
100
AcDbDictionary
281
     1
  3
ByBlock
350
45
  3
ByLayer
350
44
  3
Global
350
46
  0
DICTIONARY
  5
5B
102
{ACAD_REACTORS
330
C
102
}
330
C
100
AcDbDictionary
281
     1
  3
Standard
350
5C
  0
DICTIONARY
  5
17
102
{ACAD_REACTORS
330
C
102
}
330
C
100
AcDbDictionary
281
     1
  3
Standard
350
18
  0
DICTIONARY
  5
19
102
{ACAD_REACTORS
330
C
102
}
330
C
100
AcDbDictionary
281
     1
  0
ACDBDICTIONARYWDFLT
  5
E
102
{ACAD_REACTORS
330
C
102
}
330
C
100
AcDbDictionary
281
     1
  3
Normal
350
F
100
AcDbDictionaryWithDefault
340
F
  0
DICTIONARY
  5
47
102
{ACAD_REACTORS
330
C
102
}
330
C
100
AcDbDictionary
281
     1
  3
A0
350
48
  3
A1
350
49
  3
A2
350
4A
  3
A3
350
4B
  3
A4
350
4C
  3
A5
350
4D
  3
A6
350
4E
  3
A7
350
4F
  3
A8
350
50
  3
A9
350
51
  3
B1
350
52
  3
B2
350
53
  3
B3
350
54
  3
B4
350
55
  3
B5
350
56
  3
B6
350
57
  3
B7
350
58
  0
DICTIONARY
  5
2D6
102
{ACAD_REACTORS
330
C
102
}
330
C
100
AcDbDictionary
281
     1
  0
DICTIONARY
  5
59
102
{ACAD_REACTORS
330
C
102
}
330
C
100
AcDbDictionary
281
     1
  3
Standard
350
5A
  0
DICTIONARY
  5
2A
102
{ACAD_REACTORS
330
C
102
}
330
C
100
AcDbDictionary
281
     1
  3
2dWireframe
350
2F
  3
Basic
350
32
  3
Brighten
350
36
  3
ColorChange
350
3A
  3
Conceptual
350
34
  3
Dim
350
35
  3
EdgeColorOff
350
3D
  3
Facepattern
350
39
  3
Flat
350
2B
  3
FlatWithEdges
350
2C
  3
Gouraud
350
2D
  3
GouraudWithEdges
350
2E
  3
Hidden
350
31
  3
JitterOff
350
3B
  3
Linepattern
350
38
  3
OverhangOff
350
3C
  3
Realistic
350
33
  3
Shaded
350
42
  3
Shaded with edges
350
41
  3
Shades of Gray
350
3E
  3
Sketchy
350
3F
  3
Thicken
350
37
  3
Wireframe
350
30
  3
X-Ray
350
40
  0
XRECORD
  5
2D2
102
{ACAD_REACTORS
330
C
102
}
330
C
100
AcDbXrecord
280
     1
 90
        1
330
5A
  0
DICTIONARY
  5
29A
102
{ACAD_REACTORS
330
C
102
}
330
C
100
AcDbDictionary
281
     1
  3
CANNOSCALE
350
29B
  3
CMLEADERSTYLE
350
2D4
  3
CTABLESTYLE
350
2D3
  3
XCLIPFRAME
350
29C
  0
LAYOUT
  5
1E
102
{ACAD_REACTORS
330
1A
102
}
330
1A
100
AcDbPlotSettings
  1

  2
none_device
  4

  6

 40
0.0
 41
0.0
 42
0.0
 43
0.0
 44
0.0
 45
0.0
 46
0.0
 47
0.0
 48
0.0
 49
0.0
140
0.0
141
0.0
142
1.0
143
1.0
 70
   688
 72
     0
 73
     0
 74
     5
  7

 75
    16
 76
     0
 77
     2
 78
   300
147
1.0
148
0.0
149
0.0
100
AcDbLayout
  1
Layout1
 70
     1
 71
     1
 10
0.0
 20
0.0
 11
12.0
 21
9.0
 12
0.0
 22
0.0
 32
0.0
 14
1.000000000000000E+20
 24
1.000000000000000E+20
 34
1.000000000000000E+20
 15
-1.000000000000000E+20
 25
-1.000000000000000E+20
 35
-1.000000000000000E+20
146
0.0
 13
0.0
 23
0.0
 33
0.0
 16
1.0
 26
0.0
 36
0.0
 17
0.0
 27
1.0
 37
0.0
 76
     0
330
1B
  0
LAYOUT
  5
26
102
{ACAD_REACTORS
330
1A
102
}
330
1A
100
AcDbPlotSettings
  1

  2
none_device
  4

  6

 40
0.0
 41
0.0
 42
0.0
 43
0.0
 44
0.0
 45
0.0
 46
0.0
 47
0.0
 48
0.0
 49
0.0
140
0.0
141
0.0
142
1.0
143
1.0
 70
   688
 72
     0
 73
     0
 74
     5
  7

 75
    16
 76
     0
 77
     2
 78
   300
147
1.0
148
0.0
149
0.0
100
AcDbLayout
  1
Layout2
 70
     1
 71
     2
 10
0.0
 20
0.0
 11
0.0
 21
0.0
 12
0.0
 22
0.0
 32
0.0
 14
0.0
 24
0.0
 34
0.0
 15
0.0
 25
0.0
 35
0.0
146
0.0
 13
0.0
 23
0.0
 33
0.0
 16
1.0
 26
0.0
 36
0.0
 17
0.0
 27
1.0
 37
0.0
 76
     0
330
23
  0
LAYOUT
  5
22
102
{ACAD_REACTORS
330
1A
102
}
330
1A
100
AcDbPlotSettings
  1

  2
none_device
  4
Letter_(8.50_x_11.00_Inches)
  6

 40
6.35
 41
6.35
 42
6.35000508
 43
6.35000508
 44
215.9
 45
279.4
 46
0.0
 47
0.0
 48
0.0
 49
0.0
140
0.0
141
0.0
142
1.0
143
1.0
 70
  1712
 72
     0
 73
     0
 74
     0
  7

 75
     0
 76
     0
 77
     2
 78
   300
147
1.0
148
0.0
149
0.0
100
AcDbLayout
  1
Model
 70
     1
 71
     0
 10
0.0
 20
0.0
 11
12.0
 21
9.0
 12
0.0
 22
0.0
 32
0.0
 14
-30.00000000000001
 24
-30.00000000000005
 34
-0.0000021735124003
 15
30.00000000000002
 25
30.00000000000002
 35
372.9999978264876
146
0.0
 13
0.0
 23
0.0
 33
0.0
 16
1.0
 26
0.0
 36
0.0
 17
0.0
 27
1.0
 37
0.0
 76
     0
330
1F
331
29
  0
MATERIAL
  5
45
102
{ACAD_REACTORS
330
43
102
}
330
43
100
AcDbMaterial
  1
ByBlock
 72
     1
 94
      127
  0
MATERIAL
  5
44
102
{ACAD_REACTORS
330
43
102
}
330
43
100
AcDbMaterial
  1
ByLayer
 72
     1
 94
      127
  0
MATERIAL
  5
46
102
{ACAD_REACTORS
330
43
102
}
330
43
100
AcDbMaterial
  1
Global
 72
     1
 94
      127
  0
MLEADERSTYLE
  5
5C
102
{ACAD_REACTORS
330
5B
102
}
102
{ACAD_XDICTIONARY
360
2D0
102
}
330
5B
100
AcDbMLeaderStyle
170
     2
171
     1
172
     0
 90
        2
 40
0.0
 41
0.0
173
     1
 91
-1056964608
340
14
 92
       -2
290
     1
 42
0.09
291
     1
 43
0.36
  3
Standard
341
0
 44
0.18
300

342
11
174
     1
178
     6
175
     1
176
     0
 93
-1056964608
 45
0.18
292
     0
297
     0
 46
0.18
343
0
 94
-1056964608
 47
1.0
 49
1.0
140
1.0
293
     1
141
0.0
294
     1
177
     0
142
1.0
295
     0
296
     0
143
0.125
1001
ACAD_MLEADERVER
1070
     2
  0
MLINESTYLE
  5
18
102
{ACAD_REACTORS
330
17
102
}
330
17
100
AcDbMlineStyle
  2
Standard
 70
     0
  3

 62
   256
 51
90.0
 52
90.0
 71
     2
 49
0.5
 62
   256
  6
BYLAYER
 49
-0.5
 62
   256
  6
BYLAYER
  0
ACDBPLACEHOLDER
  5
F
102
{ACAD_REACTORS
330
E
102
}
330
E
  0
SCALE
  5
48
102
{ACAD_REACTORS
330
47
102
}
330
47
100
AcDbScale
 70
     0
300
1:1
140
1.0
141
1.0
290
     1
  0
SCALE
  5
49
102
{ACAD_REACTORS
330
47
102
}
330
47
100
AcDbScale
 70
     0
300
1/128" = 1'-0"
140
0.0078125
141
12.0
290
     0
  0
SCALE
  5
4A
102
{ACAD_REACTORS
330
47
102
}
330
47
100
AcDbScale
 70
     0
300
1/64" = 1'-0"
140
0.015625
141
12.0
290
     0
  0
SCALE
  5
4B
102
{ACAD_REACTORS
330
47
102
}
330
47
100
AcDbScale
 70
     0
300
1/32" = 1'-0"
140
0.03125
141
12.0
290
     0
  0
SCALE
  5
4C
102
{ACAD_REACTORS
330
47
102
}
330
47
100
AcDbScale
 70
     0
300
1/16" = 1'-0"
140
0.0625
141
12.0
290
     0
  0
SCALE
  5
4D
102
{ACAD_REACTORS
330
47
102
}
330
47
100
AcDbScale
 70
     0
300
3/32" = 1'-0"
140
0.09375
141
12.0
290
     0
  0
SCALE
  5
4E
102
{ACAD_REACTORS
330
47
102
}
330
47
100
AcDbScale
 70
     0
300
1/8" = 1'-0"
140
0.125
141
12.0
290
     0
  0
SCALE
  5
4F
102
{ACAD_REACTORS
330
47
102
}
330
47
100
AcDbScale
 70
     0
300
3/16" = 1'-0"
140
0.1875
141
12.0
290
     0
  0
SCALE
  5
50
102
{ACAD_REACTORS
330
47
102
}
330
47
100
AcDbScale
 70
     0
300
1/4" = 1'-0"
140
0.25
141
12.0
290
     0
  0
SCALE
  5
51
102
{ACAD_REACTORS
330
47
102
}
330
47
100
AcDbScale
 70
     0
300
3/8" = 1'-0"
140
0.375
141
12.0
290
     0
  0
SCALE
  5
52
102
{ACAD_REACTORS
330
47
102
}
330
47
100
AcDbScale
 70
     0
300
1/2" = 1'-0"
140
0.5
141
12.0
290
     0
  0
SCALE
  5
53
102
{ACAD_REACTORS
330
47
102
}
330
47
100
AcDbScale
 70
     0
300
3/4" = 1'-0"
140
0.75
141
12.0
290
     0
  0
SCALE
  5
54
102
{ACAD_REACTORS
330
47
102
}
330
47
100
AcDbScale
 70
     0
300
1" = 1'-0"
140
1.0
141
12.0
290
     0
  0
SCALE
  5
55
102
{ACAD_REACTORS
330
47
102
}
330
47
100
AcDbScale
 70
     0
300
1-1/2" = 1'-0"
140
1.5
141
12.0
290
     0
  0
SCALE
  5
56
102
{ACAD_REACTORS
330
47
102
}
330
47
100
AcDbScale
 70
     0
300
3" = 1'-0"
140
3.0
141
12.0
290
     0
  0
SCALE
  5
57
102
{ACAD_REACTORS
330
47
102
}
330
47
100
AcDbScale
 70
     0
300
6" = 1'-0"
140
6.0
141
12.0
290
     0
  0
SCALE
  5
58
102
{ACAD_REACTORS
330
47
102
}
330
47
100
AcDbScale
 70
     0
300
1'-0" = 1'-0"
140
12.0
141
12.0
290
     0
  0
TABLESTYLE
  5
5A
102
{ACAD_REACTORS
330
59
102
}
102
{ACAD_XDICTIONARY
360
2CD
102
}
330
59
100
AcDbTableStyle
  3
Standard
 70
     0
 71
     0
 40
0.06
 41
0.06
280
     0
281
     0
  7
Standard
140
0.18
170
     2
 62
     0
 63
   257
283
     0
 90
        4
 91
        0
  1

274
    -2
284
     1
 64
     0
275
    -2
285
     1
 65
     0
276
    -2
286
     1
 66
     0
277
    -2
287
     1
 67
     0
278
    -2
288
     1
 68
     0
279
    -2
289
     1
 69
     0
  7
Standard
140
0.25
170
     5
 62
     0
 63
   257
283
     0
 90
        4
 91
        0
  1

274
    -2
284
     1
 64
     0
275
    -2
285
     1
 65
     0
276
    -2
286
     1
 66
     0
277
    -2
287
     1
 67
     0
278
    -2
288
     1
 68
     0
279
    -2
289
     1
 69
     0
  7
Standard
140
0.18
170
     5
 62
     0
 63
   257
283
     0
 90
        4
 91
        0
  1

274
    -2
284
     1
 64
     0
275
    -2
285
     1
 65
     0
276
    -2
286
     1
 66
     0
277
    -2
287
     1
 67
     0
278
    -2
288
     1
 68
     0
279
    -2
289
     1
 69
     0
  0
VISUALSTYLE
  5
2F
102
{ACAD_REACTORS
330
2A
102
}
102
{ACAD_XDICTIONARY
360
2A5
102
}
330
2A
100
AcDbVisualStyle
  2
2dWireframe
 70
     4
 71
     0
 72
     2
 73
     0
 90
        0
 40
0.6
 41
30.0
 62
     5
 63
     7
421
 16777215
 74
     1
 91
        4
 64
     7
 65
   257
 75
     1
175
     1
 42
1.0
 92
        0
 66
   257
 43
1.0
 76
     1
 77
     6
 78
     2
 67
     7
 79
     5
170
     0
171
     0
290
     0
174
     0
 93
        1
 44
0.0
173
     0
291
     0
 45
0.0
  0
VISUALSTYLE
  5
32
102
{ACAD_REACTORS
330
2A
102
}
102
{ACAD_XDICTIONARY
360
2AB
102
}
330
2A
100
AcDbVisualStyle
  2
Basic
 70
     7
 71
     1
 72
     0
 73
     1
 90
        0
 40
0.6
 41
30.0
 62
     5
 63
     7
421
 16777215
 74
     0
 91
        4
 64
     7
 65
   257
 75
     1
175
     1
 42
1.0
 92
        8
 66
     7
 43
1.0
 76
     1
 77
     6
 78
     2
 67
     7
 79
     5
170
     0
171
     0
290
     0
174
     0
 93
        1
 44
0.0
173
     0
291
     1
 45
0.0
  0
VISUALSTYLE
  5
36
102
{ACAD_REACTORS
330
2A
102
}
102
{ACAD_XDICTIONARY
360
2B3
102
}
330
2A
100
AcDbVisualStyle
  2
Brighten
 70
    12
 71
     2
 72
     2
 73
     0
 90
        0
 40
0.6
 41
30.0
 62
     5
 63
     7
421
 16777215
 74
     1
 91
        4
 64
     7
 65
   257
 75
     1
175
     1
 42
1.0
 92
        8
 66
     7
 43
1.0
 76
     1
 77
     6
 78
     2
 67
     7
 79
     5
170
     0
171
     0
290
     0
174
     0
 93
        1
 44
50.0
173
     0
291
     1
 45
0.0
  0
VISUALSTYLE
  5
3A
102
{ACAD_REACTORS
330
2A
102
}
102
{ACAD_XDICTIONARY
360
2BB
102
}
330
2A
100
AcDbVisualStyle
  2
ColorChange
 70
    16
 71
     2
 72
     2
 73
     3
 90
        0
 40
0.6
 41
30.0
 62
     5
 63
     8
421
  8421504
 74
     1
 91
        4
 64
     7
 65
   257
 75
     1
175
     1
 42
1.0
 92
        8
 66
     8
424
  8421504
 43
1.0
 76
     1
 77
     6
 78
     2
 67
     7
 79
     5
170
     0
171
     0
290
     0
174
     0
 93
        1
 44
0.0
173
     0
291
     1
 45
0.0
  0
VISUALSTYLE
  5
34
102
{ACAD_REACTORS
330
2A
102
}
102
{ACAD_XDICTIONARY
360
2AF
102
}
330
2A
100
AcDbVisualStyle
  2
Conceptual
 70
     9
 71
     3
 72
     2
 73
     0
 90
        0
 40
0.6
 41
30.0
 62
     5
 63
     7
421
 16777215
 74
     2
 91
        2
 64
     7
 65
   257
 75
     1
175
     1
 42
179.0
 92
        8
 66
     7
 43
1.0
 76
     1
 77
     6
 78
     2
 67
     7
 79
     3
170
     0
171
     0
290
     0
174
     0
 93
        1
 44
0.0
173
     0
291
     0
 45
0.0
  0
VISUALSTYLE
  5
35
102
{ACAD_REACTORS
330
2A
102
}
102
{ACAD_XDICTIONARY
360
2B1
102
}
330
2A
100
AcDbVisualStyle
  2
Dim
 70
    11
 71
     2
 72
     2
 73
     0
 90
        0
 40
0.6
 41
30.0
 62
     5
 63
     7
421
 16777215
 74
     1
 91
        4
 64
     7
 65
   257
 75
     1
175
     1
 42
1.0
 92
        8
 66
     7
 43
1.0
 76
     1
 77
     6
 78
     2
 67
     7
 79
     5
170
     0
171
     0
290
     0
174
     0
 93
        1
 44
-50.0
173
     0
291
     1
 45
0.0
  0
VISUALSTYLE
  5
3D
102
{ACAD_REACTORS
330
2A
102
}
102
{ACAD_XDICTIONARY
360
2C1
102
}
330
2A
100
AcDbVisualStyle
  2
EdgeColorOff
 70
    22
 71
     2
 72
     2
 73
     0
 90
        0
 40
0.6
 41
30.0
 62
     5
 63
     7
421
 16777215
 74
     1
 91
        4
 64
     7
 65
   257
 75
     1
175
     1
 42
1.0
 92
        8
 66
     7
 43
1.0
 76
     1
 77
     6
 78
     2
 67
     7
 79
     5
170
     0
171
     0
290
     0
174
     0
 93
        1
 44
0.0
173
     0
291
     1
 45
0.0
  0
VISUALSTYLE
  5
39
102
{ACAD_REACTORS
330
2A
102
}
102
{ACAD_XDICTIONARY
360
2B9
102
}
330
2A
100
AcDbVisualStyle
  2
Facepattern
 70
    15
 71
     2
 72
     2
 73
     0
 90
        0
 40
0.6
 41
30.0
 62
     5
 63
     7
421
 16777215
 74
     1
 91
        4
 64
     7
 65
   257
 75
     1
175
     1
 42
1.0
 92
        8
 66
     7
 43
1.0
 76
     1
 77
     6
 78
     2
 67
     7
 79
     5
170
     0
171
     0
290
     0
174
     0
 93
        1
 44
0.0
173
     0
291
     1
 45
0.0
  0
VISUALSTYLE
  5
2B
102
{ACAD_REACTORS
330
2A
102
}
102
{ACAD_XDICTIONARY
360
29D
102
}
330
2A
100
AcDbVisualStyle
  2
Flat
 70
     0
 71
     2
 72
     1
 73
     1
 90
        2
 40
0.6
 41
30.0
 62
     5
 63
     7
421
 16777215
 74
     0
 91
        0
 64
     7
 65
   257
 75
     1
175
     1
 42
1.0
 92
        8
 66
     7
 43
1.0
 76
     1
 77
     6
 78
     2
 67
     7
 79
     5
170
     0
171
     0
290
     0
174
     0
 93
       13
 44
0.0
173
     0
291
     1
 45
0.0
  0
VISUALSTYLE
  5
2C
102
{ACAD_REACTORS
330
2A
102
}
102
{ACAD_XDICTIONARY
360
29F
102
}
330
2A
100
AcDbVisualStyle
  2
FlatWithEdges
 70
     1
 71
     2
 72
     1
 73
     1
 90
        2
 40
0.6
 41
30.0
 62
     5
 63
     7
421
 16777215
 74
     1
 91
        0
 64
     7
 65
   257
 75
     1
175
     1
 42
1.0
 92
        0
 66
   257
 43
1.0
 76
     1
 77
     6
 78
     2
 67
     7
 79
     5
170
     0
171
     0
290
     0
174
     0
 93
       13
 44
0.0
173
     0
291
     1
 45
0.0
  0
VISUALSTYLE
  5
2D
102
{ACAD_REACTORS
330
2A
102
}
102
{ACAD_XDICTIONARY
360
2A1
102
}
330
2A
100
AcDbVisualStyle
  2
Gouraud
 70
     2
 71
     2
 72
     2
 73
     1
 90
        2
 40
0.6
 41
30.0
 62
     5
 63
     7
421
 16777215
 74
     0
 91
        0
 64
     7
 65
   257
 75
     1
175
     1
 42
1.0
 92
        0
 66
     7
 43
1.0
 76
     1
 77
     6
 78
     2
 67
     7
 79
     5
170
     0
171
     0
290
     0
174
     0
 93
       13
 44
0.0
173
     0
291
     1
 45
0.0
  0
VISUALSTYLE
  5
2E
102
{ACAD_REACTORS
330
2A
102
}
102
{ACAD_XDICTIONARY
360
2A3
102
}
330
2A
100
AcDbVisualStyle
  2
GouraudWithEdges
 70
     3
 71
     2
 72
     2
 73
     1
 90
        2
 40
0.6
 41
30.0
 62
     5
 63
     7
421
 16777215
 74
     1
 91
        0
 64
     7
 65
   257
 75
     1
175
     1
 42
1.0
 92
        0
 66
   257
 43
1.0
 76
     1
 77
     6
 78
     2
 67
     7
 79
     5
170
     0
171
     0
290
     0
174
     0
 93
       13
 44
0.0
173
     0
291
     1
 45
0.0
  0
VISUALSTYLE
  5
31
102
{ACAD_REACTORS
330
2A
102
}
102
{ACAD_XDICTIONARY
360
2A9
102
}
330
2A
100
AcDbVisualStyle
  2
Hidden
 70
     6
 71
     1
 72
     2
 73
     2
 90
        0
 40
0.6
 41
30.0
 62
     5
 63
     7
421
 16777215
 74
     2
 91
        2
 64
     7
 65
   257
 75
     2
175
     1
 42
40.0
 92
        0
 66
   257
 43
1.0
 76
     1
 77
     6
 78
     2
 67
     7
 79
     3
170
     0
171
     0
290
     0
174
     0
 93
        1
 44
0.0
173
     0
291
     0
 45
0.0
  0
VISUALSTYLE
  5
3B
102
{ACAD_REACTORS
330
2A
102
}
102
{ACAD_XDICTIONARY
360
2BD
102
}
330
2A
100
AcDbVisualStyle
  2
JitterOff
 70
    20
 71
     2
 72
     2
 73
     0
 90
        0
 40
0.6
 41
30.0
 62
     5
 63
     7
421
 16777215
 74
     1
 91
        4
 64
     7
 65
   257
 75
     1
175
     1
 42
1.0
 92
       10
 66
     7
 43
1.0
 76
     1
 77
     6
 78
     2
 67
     7
 79
     5
170
     0
171
     0
290
     0
174
     0
 93
        1
 44
0.0
173
     0
291
     1
 45
0.0
  0
VISUALSTYLE
  5
38
102
{ACAD_REACTORS
330
2A
102
}
102
{ACAD_XDICTIONARY
360
2B7
102
}
330
2A
100
AcDbVisualStyle
  2
Linepattern
 70
    14
 71
     2
 72
     2
 73
     0
 90
        0
 40
0.6
 41
30.0
 62
     5
 63
     7
421
 16777215
 74
     1
 91
        4
 64
     7
 65
   257
 75
     7
175
     7
 42
1.0
 92
        8
 66
     7
 43
1.0
 76
     1
 77
     6
 78
     2
 67
     7
 79
     5
170
     0
171
     0
290
     0
174
     0
 93
        1
 44
0.0
173
     0
291
     1
 45
0.0
  0
VISUALSTYLE
  5
3C
102
{ACAD_REACTORS
330
2A
102
}
102
{ACAD_XDICTIONARY
360
2BF
102
}
330
2A
100
AcDbVisualStyle
  2
OverhangOff
 70
    21
 71
     2
 72
     2
 73
     0
 90
        0
 40
0.6
 41
30.0
 62
     5
 63
     7
421
 16777215
 74
     1
 91
        4
 64
     7
 65
   257
 75
     1
175
     1
 42
1.0
 92
        9
 66
     7
 43
1.0
 76
     1
 77
     6
 78
     2
 67
     7
 79
     5
170
     0
171
     0
290
     0
174
     0
 93
        1
 44
0.0
173
     0
291
     1
 45
0.0
  0
VISUALSTYLE
  5
33
102
{ACAD_REACTORS
330
2A
102
}
102
{ACAD_XDICTIONARY
360
2AD
102
}
330
2A
100
AcDbVisualStyle
  2
Realistic
 70
     8
 71
     2
 72
     3
 73
     0
 90
        2
 40
0.6
 41
30.0
 62
     5
 63
     7
421
 16777215
 74
     0
 91
        0
 64
     7
 65
   257
 75
     1
175
     1
 42
1.0
 92
        8
 66
   257
 43
1.0
 76
     1
 77
     6
 78
     2
 67
     7
 79
     3
170
     0
171
     0
290
     0
174
     0
 93
       13
 44
0.0
173
     0
291
     0
 45
0.0
  0
VISUALSTYLE
  5
42
102
{ACAD_REACTORS
330
2A
102
}
102
{ACAD_XDICTIONARY
360
2CB
102
}
330
2A
100
AcDbVisualStyle
  2
Shaded
 70
    27
 71
     2
 72
     2
 73
     1
 90
        2
 40
0.6
 41
30.0
 62
     5
 63
     7
421
 16777215
 74
     0
 91
        4
 64
     7
 65
   257
 75
     1
175
     1
 42
1.0
 92
        8
 66
   257
 43
1.0
 76
     1
 77
     6
 78
     2
 67
     8
425
  7895160
 79
     3
170
     0
171
     0
290
     0
174
     0
 93
        5
 44
0.0
173
     0
291
     0
 45
0.0
  0
VISUALSTYLE
  5
41
102
{ACAD_REACTORS
330
2A
102
}
102
{ACAD_XDICTIONARY
360
2C9
102
}
330
2A
100
AcDbVisualStyle
  2
Shaded with edges
 70
    26
 71
     2
 72
     2
 73
     1
 90
        2
 40
0.6
 41
30.0
 62
     5
 63
     7
421
 16777215
 74
     1
 91
       10
 64
     7
 65
   257
 75
     2
175
     1
 42
1.0
 92
        8
 66
   257
 43
1.0
 76
     1
 77
     6
 78
     2
 67
     7
 79
     3
170
     0
171
     0
290
     0
174
     0
 93
        5
 44
0.0
173
     0
291
     0
 45
0.0
  0
VISUALSTYLE
  5
3E
102
{ACAD_REACTORS
330
2A
102
}
102
{ACAD_XDICTIONARY
360
2C3
102
}
330
2A
100
AcDbVisualStyle
  2
Shades of Gray
 70
    23
 71
     2
 72
     2
 73
     3
 90
        0
 40
0.6
 41
30.0
 62
     5
 63
     7
421
 16777215
 74
     2
 91
        2
 64
     7
 65
     7
 75
     1
175
     1
 42
40.0
 92
        8
 66
     7
 43
1.0
 76
     1
 77
     6
 78
     2
 67
     7
 79
     3
170
     0
171
     0
290
     0
174
     0
 93
        1
 44
0.0
173
     0
291
     0
 45
0.0
  0
VISUALSTYLE
  5
3F
102
{ACAD_REACTORS
330
2A
102
}
102
{ACAD_XDICTIONARY
360
2C5
102
}
330
2A
100
AcDbVisualStyle
  2
Sketchy
 70
    24
 71
     1
 72
     2
 73
     2
 90
        0
 40
0.6
 41
30.0
 62
     5
 63
     7
421
 16777215
 74
     2
 91
        2
 64
     7
 65
     7
 75
     1
175
     1
 42
40.0
 92
       11
 66
     7
 43
1.0
 76
     1
 77
     6
 78
     2
 67
     7
 79
     6
170
     0
171
     0
290
     0
174
     0
 93
        1
 44
0.0
173
     0
291
     0
 45
0.0
  0
VISUALSTYLE
  5
37
102
{ACAD_REACTORS
330
2A
102
}
102
{ACAD_XDICTIONARY
360
2B5
102
}
330
2A
100
AcDbVisualStyle
  2
Thicken
 70
    13
 71
     2
 72
     2
 73
     0
 90
        0
 40
0.6
 41
30.0
 62
     5
 63
     7
421
 16777215
 74
     1
 91
        4
 64
     7
 65
   257
 75
     1
175
     1
 42
1.0
 92
       12
 66
     7
 43
1.0
 76
     1
 77
     6
 78
     2
 67
     7
 79
     5
170
     0
171
     0
290
     0
174
     0
 93
        1
 44
0.0
173
     0
291
     1
 45
0.0
  0
VISUALSTYLE
  5
30
102
{ACAD_REACTORS
330
2A
102
}
102
{ACAD_XDICTIONARY
360
2A7
102
}
330
2A
100
AcDbVisualStyle
  2
Wireframe
 70
     5
 71
     0
 72
     2
 73
     0
 90
        0
 40
0.6
 41
30.0
 62
     5
 63
     7
421
 16777215
 74
     1
 91
        4
 64
     7
 65
   257
 75
     1
175
     1
 42
1.0
 92
        0
 66
   257
 43
1.0
 76
     1
 77
     6
 78
     2
 67
     7
 79
     3
170
     0
171
     0
290
     0
174
     0
 93
        1
 44
0.0
173
     0
291
     0
 45
0.0
  0
VISUALSTYLE
  5
40
102
{ACAD_REACTORS
330
2A
102
}
102
{ACAD_XDICTIONARY
360
2C7
102
}
330
2A
100
AcDbVisualStyle
  2
X-Ray
 70
    25
 71
     2
 72
     2
 73
     1
 90
        1
 40
0.5
 41
30.0
 62
     5
 63
     7
421
 16777215
 74
     1
 91
        0
 64
     7
 65
   257
 75
     1
175
     1
 42
1.0
 92
        8
 66
     7
 43
1.0
 76
     1
 77
     6
 78
     2
 67
     7
 79
     3
170
     0
171
     0
290
     0
174
     0
 93
       13
 44
0.0
173
     0
291
     0
 45
0.0
  0
DICTIONARYVAR
  5
29B
102
{ACAD_REACTORS
330
29A
102
}
330
29A
100
DictionaryVariables
280
     0
  1
1:1
  0
DICTIONARYVAR
  5
2D4
102
{ACAD_REACTORS
330
29A
102
}
330
29A
100
DictionaryVariables
280
     0
  1
Standard
  0
DICTIONARYVAR
  5
2D3
102
{ACAD_REACTORS
330
29A
102
}
330
29A
100
DictionaryVariables
280
     0
  1
Standard
  0
DICTIONARYVAR
  5
29C
102
{ACAD_REACTORS
330
29A
102
}
330
29A
100
DictionaryVariables
280
     0
  1
2
  0
DICTIONARY
  5
2D0
330
5C
100
AcDbDictionary
280
     1
281
     1
  3
ACAD_XREC_ROUNDTRIP
360
2D1
  0
DICTIONARY
  5
2CD
330
5A
100
AcDbDictionary
280
     1
281
     1
  3
ACAD_ROUNDTRIP_2008_TABLESTYLE_CELLSTYLEMAP
360
2CE
  0
DICTIONARY
  5
2A5
330
2F
100
AcDbDictionary
280
     1
281
     1
  3
ACAD_XREC_ROUNDTRIP
360
2A6
  0
DICTIONARY
  5
2AB
330
32
100
AcDbDictionary
280
     1
281
     1
  3
ACAD_XREC_ROUNDTRIP
360
2AC
  0
DICTIONARY
  5
2B3
330
36
100
AcDbDictionary
280
     1
281
     1
  3
ACAD_XREC_ROUNDTRIP
360
2B4
  0
DICTIONARY
  5
2BB
330
3A
100
AcDbDictionary
280
     1
281
     1
  3
ACAD_XREC_ROUNDTRIP
360
2BC
  0
DICTIONARY
  5
2AF
330
34
100
AcDbDictionary
280
     1
281
     1
  3
ACAD_XREC_ROUNDTRIP
360
2B0
  0
DICTIONARY
  5
2B1
330
35
100
AcDbDictionary
280
     1
281
     1
  3
ACAD_XREC_ROUNDTRIP
360
2B2
  0
DICTIONARY
  5
2C1
330
3D
100
AcDbDictionary
280
     1
281
     1
  3
ACAD_XREC_ROUNDTRIP
360
2C2
  0
DICTIONARY
  5
2B9
330
39
100
AcDbDictionary
280
     1
281
     1
  3
ACAD_XREC_ROUNDTRIP
360
2BA
  0
DICTIONARY
  5
29D
330
2B
100
AcDbDictionary
280
     1
281
     1
  3
ACAD_XREC_ROUNDTRIP
360
29E
  0
DICTIONARY
  5
29F
330
2C
100
AcDbDictionary
280
     1
281
     1
  3
ACAD_XREC_ROUNDTRIP
360
2A0
  0
DICTIONARY
  5
2A1
330
2D
100
AcDbDictionary
280
     1
281
     1
  3
ACAD_XREC_ROUNDTRIP
360
2A2
  0
DICTIONARY
  5
2A3
330
2E
100
AcDbDictionary
280
     1
281
     1
  3
ACAD_XREC_ROUNDTRIP
360
2A4
  0
DICTIONARY
  5
2A9
330
31
100
AcDbDictionary
280
     1
281
     1
  3
ACAD_XREC_ROUNDTRIP
360
2AA
  0
DICTIONARY
  5
2BD
330
3B
100
AcDbDictionary
280
     1
281
     1
  3
ACAD_XREC_ROUNDTRIP
360
2BE
  0
DICTIONARY
  5
2B7
330
38
100
AcDbDictionary
280
     1
281
     1
  3
ACAD_XREC_ROUNDTRIP
360
2B8
  0
DICTIONARY
  5
2BF
330
3C
100
AcDbDictionary
280
     1
281
     1
  3
ACAD_XREC_ROUNDTRIP
360
2C0
  0
DICTIONARY
  5
2AD
330
33
100
AcDbDictionary
280
     1
281
     1
  3
ACAD_XREC_ROUNDTRIP
360
2AE
  0
DICTIONARY
  5
2CB
330
42
100
AcDbDictionary
280
     1
281
     1
  3
ACAD_XREC_ROUNDTRIP
360
2CC
  0
DICTIONARY
  5
2C9
330
41
100
AcDbDictionary
280
     1
281
     1
  3
ACAD_XREC_ROUNDTRIP
360
2CA
  0
DICTIONARY
  5
2C3
330
3E
100
AcDbDictionary
280
     1
281
     1
  3
ACAD_XREC_ROUNDTRIP
360
2C4
  0
DICTIONARY
  5
2C5
330
3F
100
AcDbDictionary
280
     1
281
     1
  3
ACAD_XREC_ROUNDTRIP
360
2C6
  0
DICTIONARY
  5
2B5
330
37
100
AcDbDictionary
280
     1
281
     1
  3
ACAD_XREC_ROUNDTRIP
360
2B6
  0
DICTIONARY
  5
2A7
330
30
100
AcDbDictionary
280
     1
281
     1
  3
ACAD_XREC_ROUNDTRIP
360
2A8
  0
DICTIONARY
  5
2C7
330
40
100
AcDbDictionary
280
     1
281
     1
  3
ACAD_XREC_ROUNDTRIP
360
2C8
  0
XRECORD
  5
2D1
102
{ACAD_REACTORS
330
2D0
102
}
330
2D0
100
AcDbXrecord
280
     1
102
ACAD_ROUNDTRIP_2010_MLEADER_STYLE
  0
CELLSTYLEMAP
  5
2CE
102
{ACAD_REACTORS
330
2CD
102
}
330
2CD
100
AcDbCellStyleMap
 90
        3
300
CELLSTYLE
  1
TABLEFORMAT_BEGIN
 90
        5
170
     1
 91
        0
 92
    32768
 62
   257
 93
        1
300
CONTENTFORMAT
  1
CONTENTFORMAT_BEGIN
 90
        0
 91
        0
 92
        4
 93
        0
300

 40
0.0
140
1.0
 94
        5
 62
     0
340
11
144
0.25
309
CONTENTFORMAT_END
171
     1
301
MARGIN
  1
CELLMARGIN_BEGIN
 40
0.06
 40
0.06
 40
0.06
 40
0.06
 40
0.06
 40
0.06
309
CELLMARGIN_END
 94
        6
 95
        1
302
GRIDFORMAT
  1
GRIDFORMAT_BEGIN
 90
        0
 91
        1
 62
     0
 92
       -2
340
14
 93
        0
 40
0.045
309
GRIDFORMAT_END
 95
        2
302
GRIDFORMAT
  1
GRIDFORMAT_BEGIN
 90
        0
 91
        1
 62
     0
 92
       -2
340
14
 93
        0
 40
0.045
309
GRIDFORMAT_END
 95
        4
302
GRIDFORMAT
  1
GRIDFORMAT_BEGIN
 90
        0
 91
        1
 62
     0
 92
       -2
340
14
 93
        0
 40
0.045
309
GRIDFORMAT_END
 95
        8
302
GRIDFORMAT
  1
GRIDFORMAT_BEGIN
 90
        0
 91
        1
 62
     0
 92
       -2
340
14
 93
        0
 40
0.045
309
GRIDFORMAT_END
 95
       16
302
GRIDFORMAT
  1
GRIDFORMAT_BEGIN
 90
        0
 91
        1
 62
     0
 92
       -2
340
14
 93
        0
 40
0.045
309
GRIDFORMAT_END
 95
       32
302
GRIDFORMAT
  1
GRIDFORMAT_BEGIN
 90
        0
 91
        1
 62
     0
 92
       -2
340
14
 93
        0
 40
0.045
309
GRIDFORMAT_END
309
TABLEFORMAT_END
  1
CELLSTYLE_BEGIN
 90
        1
 91
        1
300
_TITLE
309
CELLSTYLE_END
300
CELLSTYLE
  1
TABLEFORMAT_BEGIN
 90
        5
170
     1
 91
        0
 92
        0
 62
   257
 93
        1
300
CONTENTFORMAT
  1
CONTENTFORMAT_BEGIN
 90
        0
 91
        0
 92
        4
 93
        0
300

 40
0.0
140
1.0
 94
        5
 62
     0
340
11
144
0.18
309
CONTENTFORMAT_END
171
     1
301
MARGIN
  1
CELLMARGIN_BEGIN
 40
0.06
 40
0.06
 40
0.06
 40
0.06
 40
0.06
 40
0.06
309
CELLMARGIN_END
 94
        6
 95
        1
302
GRIDFORMAT
  1
GRIDFORMAT_BEGIN
 90
        0
 91
        1
 62
     0
 92
       -2
340
14
 93
        0
 40
0.045
309
GRIDFORMAT_END
 95
        2
302
GRIDFORMAT
  1
GRIDFORMAT_BEGIN
 90
        0
 91
        1
 62
     0
 92
       -2
340
14
 93
        0
 40
0.045
309
GRIDFORMAT_END
 95
        4
302
GRIDFORMAT
  1
GRIDFORMAT_BEGIN
 90
        0
 91
        1
 62
     0
 92
       -2
340
14
 93
        0
 40
0.045
309
GRIDFORMAT_END
 95
        8
302
GRIDFORMAT
  1
GRIDFORMAT_BEGIN
 90
        0
 91
        1
 62
     0
 92
       -2
340
14
 93
        0
 40
0.045
309
GRIDFORMAT_END
 95
       16
302
GRIDFORMAT
  1
GRIDFORMAT_BEGIN
 90
        0
 91
        1
 62
     0
 92
       -2
340
14
 93
        0
 40
0.045
309
GRIDFORMAT_END
 95
       32
302
GRIDFORMAT
  1
GRIDFORMAT_BEGIN
 90
        0
 91
        1
 62
     0
 92
       -2
340
14
 93
        0
 40
0.045
309
GRIDFORMAT_END
309
TABLEFORMAT_END
  1
CELLSTYLE_BEGIN
 90
        2
 91
        1
300
_HEADER
309
CELLSTYLE_END
300
CELLSTYLE
  1
TABLEFORMAT_BEGIN
 90
        5
170
     1
 91
        0
 92
        0
 62
   257
 93
        1
300
CONTENTFORMAT
  1
CONTENTFORMAT_BEGIN
 90
        0
 91
        0
 92
        4
 93
        0
300

 40
0.0
140
1.0
 94
        2
 62
     0
340
11
144
0.18
309
CONTENTFORMAT_END
171
     1
301
MARGIN
  1
CELLMARGIN_BEGIN
 40
0.06
 40
0.06
 40
0.06
 40
0.06
 40
0.06
 40
0.06
309
CELLMARGIN_END
 94
        6
 95
        1
302
GRIDFORMAT
  1
GRIDFORMAT_BEGIN
 90
        0
 91
        1
 62
     0
 92
       -2
340
14
 93
        0
 40
0.045
309
GRIDFORMAT_END
 95
        2
302
GRIDFORMAT
  1
GRIDFORMAT_BEGIN
 90
        0
 91
        1
 62
     0
 92
       -2
340
14
 93
        0
 40
0.045
309
GRIDFORMAT_END
 95
        4
302
GRIDFORMAT
  1
GRIDFORMAT_BEGIN
 90
        0
 91
        1
 62
     0
 92
       -2
340
14
 93
        0
 40
0.045
309
GRIDFORMAT_END
 95
        8
302
GRIDFORMAT
  1
GRIDFORMAT_BEGIN
 90
        0
 91
        1
 62
     0
 92
       -2
340
14
 93
        0
 40
0.045
309
GRIDFORMAT_END
 95
       16
302
GRIDFORMAT
  1
GRIDFORMAT_BEGIN
 90
        0
 91
        1
 62
     0
 92
       -2
340
14
 93
        0
 40
0.045
309
GRIDFORMAT_END
 95
       32
302
GRIDFORMAT
  1
GRIDFORMAT_BEGIN
 90
        0
 91
        1
 62
     0
 92
       -2
340
14
 93
        0
 40
0.045
309
GRIDFORMAT_END
309
TABLEFORMAT_END
  1
CELLSTYLE_BEGIN
 90
        3
 91
        2
300
_DATA
309
CELLSTYLE_END
  0
XRECORD
  5
2A6
102
{ACAD_REACTORS
330
2A5
102
}
330
2A5
100
AcDbXrecord
280
     1
102
RTVSPropertyOp0
 70
     1
102
RTVSPropertyOp1
 70
     1
102
RTVSPropertyOp2
 70
     1
102
RTVSPropertyOp3
 70
     1
102
RTVSPropertyOp4
 70
     1
102
RTVSPropertyOp5
 70
     1
102
RTVSPropertyOp6
 70
     1
102
RTVSPropertyOp7
 70
     1
102
RTVSPropertyOp8
 70
     1
102
RTVSPropertyOp9
 70
     1
102
RTVSPropertyOp10
 70
     1
102
RTVSPropertyOp11
 70
     1
102
RTVSPropertyOp12
 70
     1
102
RTVSPropertyOp13
 70
     1
102
RTVSPropertyOp14
 70
     1
102
RTVSPropertyOp15
 70
     1
102
RTVSPropertyOp16
 70
     1
102
RTVSPropertyOp17
 70
     1
102
RTVSPropertyOp18
 70
     1
102
RTVSPropertyOp19
 70
     1
102
RTVSPropertyOp20
 70
     1
102
RTVSPropertyOp21
 70
     1
102
RTVSPropertyOp22
 70
     1
102
RTVSPropertyOp23
 70
     1
102
RTVSPropertyOp24
 70
     1
102
RTVSPropertyOp25
 70
     1
102
RTVSPropertyOp26
 70
     1
102
RTVSPropertyOp27
 70
     1
102
RTVSPropertyOp28
 70
     1
102
RTVSPropertyOp29
 70
     1
102
RTVSPropertyOp30
 70
     1
102
RTVSPropertyOp31
 70
     1
102
RTVSPropertyOp32
 70
     1
102
RTVSPropertyOp33
 70
     1
102
RTVSPropertyOp34
 70
     1
102
RTVSPropertyOp35
 70
     1
102
RTVSPropertyOp36
 70
     1
102
RTVSPropertyOp37
 70
     1
102
RTVSPropertyOp38
 70
     1
102
RTVSPropertyOp39
 70
     1
102
RTVSPropertyOp40
 70
     1
102
RTVSPropertyOp41
 70
     1
102
RTVSPropertyOp42
 70
     1
102
RTVSPropertyOp43
 70
     1
102
RTVSPropertyOp44
 70
     1
102
RTVSPropertyOp45
 70
     1
102
RTVSPropertyOp46
 70
     1
102
RTVSPropertyOp47
 70
     1
102
RTVSPropertyOp48
 70
     1
102
RTVSPropertyOp49
 70
     1
102
RTVSPropertyOp50
 70
     1
102
RTVSPropertyOp51
 70
     0
102
RTVSPropertyOp52
 70
     0
102
RTVSPropertyOp53
 70
     1
102
RTVSPropertyOp54
 70
     1
102
RTVSPropertyOp55
 70
     1
102
RTVSPropertyOp56
 70
     1
102
RTVSPropertyOp57
 70
     1
102
RTVSPost2010Prop28
280
     1
102
RTVSPost2010PropOp28
 70
     1
102
RTVSPost2010Prop29
280
     1
102
RTVSPost2010PropOp29
 70
     1
102
RTVSPost2010Prop30
280
     0
102
RTVSPost2010PropOp30
 70
     1
102
RTVSPost2010Prop31
280
     0
102
RTVSPost2010PropOp31
 70
     1
102
RTVSPost2010Prop32
280
     0
102
RTVSPost2010PropOp32
 70
     1
102
RTVSPost2010Prop33
280
     0
102
RTVSPost2010PropOp33
 70
     1
102
RTVSPost2010Prop34
280
     0
102
RTVSPost2010PropOp34
 70
     1
102
RTVSPost2010Prop35
280
     0
102
RTVSPost2010PropOp35
 70
     1
102
RTVSPost2010Prop36
280
     0
102
RTVSPost2010PropOp36
 70
     1
102
RTVSPost2010Prop37
 90
       50
102
RTVSPost2010PropOp37
 70
     1
102
RTVSPost2010Prop38
140
0.0
102
RTVSPost2010PropOp38
 70
     1
102
RTVSPost2010Prop39
140
1.0
102
RTVSPost2010PropOp39
 70
     1
102
RTVSPost2010Prop40
 90
        0
102
RTVSPost2010PropOp40
 70
     1
102
RTVSPost2010Prop41ColorIndex
 90
       18
102
RTVSPost2010Prop41ColorRGB
 90
        0
102
RTVSPost2010PropOp41
 70
     1
102
RTVSPost2010Prop42
 90
       50
102
RTVSPost2010PropOp42
 70
     1
102
RTVSPost2010Prop43
 90
        3
102
RTVSPost2010PropOp43
 70
     1
102
RTVSPost2010Prop44ColorIndex
 90
        5
102
RTVSPost2010Prop44ColorRGB
 90
      255
102
RTVSPost2010PropOp44
 70
     1
102
RTVSPost2010Prop45
280
     0
102
RTVSPost2010PropOp45
 70
     1
102
RTVSPost2010Prop46
 90
       50
102
RTVSPost2010PropOp46
 70
     1
102
RTVSPost2010Prop47
 90
       50
102
RTVSPost2010PropOp47
 70
     1
102
RTVSPost2010Prop48
 90
       50
102
RTVSPost2010PropOp48
 70
     1
102
RTVSPost2010Prop49
280
     0
102
RTVSPost2010PropOp49
 70
     1
102
RTVSPost2010Prop50
 90
       50
102
RTVSPost2010PropOp50
 70
     1
102
RTVSPost2010Prop51ColorIndex
 90
      256
102
RTVSPost2010Prop51ColorRGB
 90
-16777216
102
RTVSPost2010PropOp51
 70
     0
102
RTVSPost2010Prop52
140
1.0
102
RTVSPost2010PropOp52
 70
     0
102
RTVSPost2010Prop53
 90
        2
102
RTVSPost2010PropOp53
 70
     1
102
RTVSPost2010Prop54
  1
strokes_ogs.tif
102
RTVSPost2010PropOp54
 70
     1
102
RTVSPost2010Prop55
280
     0
102
RTVSPost2010PropOp55
 70
     1
102
RTVSPost2010Prop56
140
1.0
102
RTVSPost2010PropOp56
 70
     1
102
RTVSPost2010Prop57
140
1.0
102
RTVSPost2010PropOp57
 70
     1
  0
XRECORD
  5
2AC
102
{ACAD_REACTORS
330
2AB
102
}
330
2AB
100
AcDbXrecord
280
     1
102
RTVSPropertyOp0
 70
     1
102
RTVSPropertyOp1
 70
     1
102
RTVSPropertyOp2
 70
     1
102
RTVSPropertyOp3
 70
     1
102
RTVSPropertyOp4
 70
     1
102
RTVSPropertyOp5
 70
     1
102
RTVSPropertyOp6
 70
     1
102
RTVSPropertyOp7
 70
     1
102
RTVSPropertyOp8
 70
     1
102
RTVSPropertyOp9
 70
     1
102
RTVSPropertyOp10
 70
     1
102
RTVSPropertyOp11
 70
     1
102
RTVSPropertyOp12
 70
     1
102
RTVSPropertyOp13
 70
     1
102
RTVSPropertyOp14
 70
     1
102
RTVSPropertyOp15
 70
     1
102
RTVSPropertyOp16
 70
     1
102
RTVSPropertyOp17
 70
     1
102
RTVSPropertyOp18
 70
     1
102
RTVSPropertyOp19
 70
     1
102
RTVSPropertyOp20
 70
     1
102
RTVSPropertyOp21
 70
     1
102
RTVSPropertyOp22
 70
     1
102
RTVSPropertyOp23
 70
     1
102
RTVSPropertyOp24
 70
     1
102
RTVSPropertyOp25
 70
     1
102
RTVSPropertyOp26
 70
     1
102
RTVSPropertyOp27
 70
     1
102
RTVSPropertyOp28
 70
     1
102
RTVSPropertyOp29
 70
     1
102
RTVSPropertyOp30
 70
     1
102
RTVSPropertyOp31
 70
     1
102
RTVSPropertyOp32
 70
     1
102
RTVSPropertyOp33
 70
     1
102
RTVSPropertyOp34
 70
     1
102
RTVSPropertyOp35
 70
     1
102
RTVSPropertyOp36
 70
     1
102
RTVSPropertyOp37
 70
     1
102
RTVSPropertyOp38
 70
     1
102
RTVSPropertyOp39
 70
     1
102
RTVSPropertyOp40
 70
     1
102
RTVSPropertyOp41
 70
     1
102
RTVSPropertyOp42
 70
     1
102
RTVSPropertyOp43
 70
     1
102
RTVSPropertyOp44
 70
     1
102
RTVSPropertyOp45
 70
     1
102
RTVSPropertyOp46
 70
     1
102
RTVSPropertyOp47
 70
     1
102
RTVSPropertyOp48
 70
     1
102
RTVSPropertyOp49
 70
     1
102
RTVSPropertyOp50
 70
     1
102
RTVSPropertyOp51
 70
     0
102
RTVSPropertyOp52
 70
     0
102
RTVSPropertyOp53
 70
     1
102
RTVSPropertyOp54
 70
     1
102
RTVSPropertyOp55
 70
     1
102
RTVSPropertyOp56
 70
     1
102
RTVSPropertyOp57
 70
     1
102
RTVSPost2010Prop28
280
     0
102
RTVSPost2010PropOp28
 70
     1
102
RTVSPost2010Prop29
280
     1
102
RTVSPost2010PropOp29
 70
     1
102
RTVSPost2010Prop30
280
     1
102
RTVSPost2010PropOp30
 70
     1
102
RTVSPost2010Prop31
280
     0
102
RTVSPost2010PropOp31
 70
     1
102
RTVSPost2010Prop32
280
     0
102
RTVSPost2010PropOp32
 70
     1
102
RTVSPost2010Prop33
280
     0
102
RTVSPost2010PropOp33
 70
     1
102
RTVSPost2010Prop34
280
     0
102
RTVSPost2010PropOp34
 70
     1
102
RTVSPost2010Prop35
280
     0
102
RTVSPost2010PropOp35
 70
     1
102
RTVSPost2010Prop36
280
     0
102
RTVSPost2010PropOp36
 70
     1
102
RTVSPost2010Prop37
 90
       50
102
RTVSPost2010PropOp37
 70
     1
102
RTVSPost2010Prop38
140
0.0
102
RTVSPost2010PropOp38
 70
     1
102
RTVSPost2010Prop39
140
1.0
102
RTVSPost2010PropOp39
 70
     1
102
RTVSPost2010Prop40
 90
        0
102
RTVSPost2010PropOp40
 70
     1
102
RTVSPost2010Prop41ColorIndex
 90
       18
102
RTVSPost2010Prop41ColorRGB
 90
        0
102
RTVSPost2010PropOp41
 70
     1
102
RTVSPost2010Prop42
 90
       50
102
RTVSPost2010PropOp42
 70
     1
102
RTVSPost2010Prop43
 90
        3
102
RTVSPost2010PropOp43
 70
     1
102
RTVSPost2010Prop44ColorIndex
 90
        5
102
RTVSPost2010Prop44ColorRGB
 90
      255
102
RTVSPost2010PropOp44
 70
     1
102
RTVSPost2010Prop45
280
     0
102
RTVSPost2010PropOp45
 70
     1
102
RTVSPost2010Prop46
 90
       50
102
RTVSPost2010PropOp46
 70
     1
102
RTVSPost2010Prop47
 90
       50
102
RTVSPost2010PropOp47
 70
     1
102
RTVSPost2010Prop48
 90
       50
102
RTVSPost2010PropOp48
 70
     1
102
RTVSPost2010Prop49
280
     0
102
RTVSPost2010PropOp49
 70
     1
102
RTVSPost2010Prop50
 90
       50
102
RTVSPost2010PropOp50
 70
     1
102
RTVSPost2010Prop51ColorIndex
 90
      256
102
RTVSPost2010Prop51ColorRGB
 90
-16777216
102
RTVSPost2010PropOp51
 70
     0
102
RTVSPost2010Prop52
140
1.0
102
RTVSPost2010PropOp52
 70
     0
102
RTVSPost2010Prop53
 90
        2
102
RTVSPost2010PropOp53
 70
     1
102
RTVSPost2010Prop54
  1
strokes_ogs.tif
102
RTVSPost2010PropOp54
 70
     1
102
RTVSPost2010Prop55
280
     0
102
RTVSPost2010PropOp55
 70
     1
102
RTVSPost2010Prop56
140
1.0
102
RTVSPost2010PropOp56
 70
     1
102
RTVSPost2010Prop57
140
1.0
102
RTVSPost2010PropOp57
 70
     1
  0
XRECORD
  5
2B4
102
{ACAD_REACTORS
330
2B3
102
}
330
2B3
100
AcDbXrecord
280
     1
102
RTVSPropertyOp0
 70
     1
102
RTVSPropertyOp1
 70
     1
102
RTVSPropertyOp2
 70
     1
102
RTVSPropertyOp3
 70
     1
102
RTVSPropertyOp4
 70
     1
102
RTVSPropertyOp5
 70
     1
102
RTVSPropertyOp6
 70
     1
102
RTVSPropertyOp7
 70
     1
102
RTVSPropertyOp8
 70
     1
102
RTVSPropertyOp9
 70
     1
102
RTVSPropertyOp10
 70
     1
102
RTVSPropertyOp11
 70
     1
102
RTVSPropertyOp12
 70
     1
102
RTVSPropertyOp13
 70
     1
102
RTVSPropertyOp14
 70
     1
102
RTVSPropertyOp15
 70
     1
102
RTVSPropertyOp16
 70
     1
102
RTVSPropertyOp17
 70
     1
102
RTVSPropertyOp18
 70
     1
102
RTVSPropertyOp19
 70
     1
102
RTVSPropertyOp20
 70
     1
102
RTVSPropertyOp21
 70
     1
102
RTVSPropertyOp22
 70
     1
102
RTVSPropertyOp23
 70
     1
102
RTVSPropertyOp24
 70
     1
102
RTVSPropertyOp25
 70
     1
102
RTVSPropertyOp26
 70
     1
102
RTVSPropertyOp27
 70
     1
102
RTVSPropertyOp28
 70
     1
102
RTVSPropertyOp29
 70
     1
102
RTVSPropertyOp30
 70
     1
102
RTVSPropertyOp31
 70
     1
102
RTVSPropertyOp32
 70
     1
102
RTVSPropertyOp33
 70
     1
102
RTVSPropertyOp34
 70
     1
102
RTVSPropertyOp35
 70
     1
102
RTVSPropertyOp36
 70
     1
102
RTVSPropertyOp37
 70
     1
102
RTVSPropertyOp38
 70
     1
102
RTVSPropertyOp39
 70
     1
102
RTVSPropertyOp40
 70
     1
102
RTVSPropertyOp41
 70
     1
102
RTVSPropertyOp42
 70
     1
102
RTVSPropertyOp43
 70
     1
102
RTVSPropertyOp44
 70
     1
102
RTVSPropertyOp45
 70
     1
102
RTVSPropertyOp46
 70
     1
102
RTVSPropertyOp47
 70
     1
102
RTVSPropertyOp48
 70
     1
102
RTVSPropertyOp49
 70
     1
102
RTVSPropertyOp50
 70
     1
102
RTVSPropertyOp51
 70
     0
102
RTVSPropertyOp52
 70
     0
102
RTVSPropertyOp53
 70
     1
102
RTVSPropertyOp54
 70
     1
102
RTVSPropertyOp55
 70
     1
102
RTVSPropertyOp56
 70
     1
102
RTVSPropertyOp57
 70
     1
102
RTVSPost2010Prop28
280
     0
102
RTVSPost2010PropOp28
 70
     1
102
RTVSPost2010Prop29
280
     1
102
RTVSPost2010PropOp29
 70
     1
102
RTVSPost2010Prop30
280
     1
102
RTVSPost2010PropOp30
 70
     1
102
RTVSPost2010Prop31
280
     0
102
RTVSPost2010PropOp31
 70
     1
102
RTVSPost2010Prop32
280
     0
102
RTVSPost2010PropOp32
 70
     1
102
RTVSPost2010Prop33
280
     0
102
RTVSPost2010PropOp33
 70
     1
102
RTVSPost2010Prop34
280
     0
102
RTVSPost2010PropOp34
 70
     1
102
RTVSPost2010Prop35
280
     0
102
RTVSPost2010PropOp35
 70
     1
102
RTVSPost2010Prop36
280
     0
102
RTVSPost2010PropOp36
 70
     1
102
RTVSPost2010Prop37
 90
       50
102
RTVSPost2010PropOp37
 70
     1
102
RTVSPost2010Prop38
140
0.0
102
RTVSPost2010PropOp38
 70
     1
102
RTVSPost2010Prop39
140
1.0
102
RTVSPost2010PropOp39
 70
     1
102
RTVSPost2010Prop40
 90
        0
102
RTVSPost2010PropOp40
 70
     1
102
RTVSPost2010Prop41ColorIndex
 90
       18
102
RTVSPost2010Prop41ColorRGB
 90
        0
102
RTVSPost2010PropOp41
 70
     1
102
RTVSPost2010Prop42
 90
       50
102
RTVSPost2010PropOp42
 70
     1
102
RTVSPost2010Prop43
 90
        3
102
RTVSPost2010PropOp43
 70
     1
102
RTVSPost2010Prop44ColorIndex
 90
        5
102
RTVSPost2010Prop44ColorRGB
 90
      255
102
RTVSPost2010PropOp44
 70
     1
102
RTVSPost2010Prop45
280
     0
102
RTVSPost2010PropOp45
 70
     1
102
RTVSPost2010Prop46
 90
       50
102
RTVSPost2010PropOp46
 70
     1
102
RTVSPost2010Prop47
 90
       50
102
RTVSPost2010PropOp47
 70
     1
102
RTVSPost2010Prop48
 90
       50
102
RTVSPost2010PropOp48
 70
     1
102
RTVSPost2010Prop49
280
     0
102
RTVSPost2010PropOp49
 70
     1
102
RTVSPost2010Prop50
 90
       50
102
RTVSPost2010PropOp50
 70
     1
102
RTVSPost2010Prop51ColorIndex
 90
      256
102
RTVSPost2010Prop51ColorRGB
 90
-16777216
102
RTVSPost2010PropOp51
 70
     0
102
RTVSPost2010Prop52
140
1.0
102
RTVSPost2010PropOp52
 70
     0
102
RTVSPost2010Prop53
 90
        2
102
RTVSPost2010PropOp53
 70
     1
102
RTVSPost2010Prop54
  1
strokes_ogs.tif
102
RTVSPost2010PropOp54
 70
     1
102
RTVSPost2010Prop55
280
     0
102
RTVSPost2010PropOp55
 70
     1
102
RTVSPost2010Prop56
140
1.0
102
RTVSPost2010PropOp56
 70
     1
102
RTVSPost2010Prop57
140
1.0
102
RTVSPost2010PropOp57
 70
     1
  0
XRECORD
  5
2BC
102
{ACAD_REACTORS
330
2BB
102
}
330
2BB
100
AcDbXrecord
280
     1
102
RTVSPropertyOp0
 70
     1
102
RTVSPropertyOp1
 70
     1
102
RTVSPropertyOp2
 70
     1
102
RTVSPropertyOp3
 70
     1
102
RTVSPropertyOp4
 70
     1
102
RTVSPropertyOp5
 70
     1
102
RTVSPropertyOp6
 70
     1
102
RTVSPropertyOp7
 70
     1
102
RTVSPropertyOp8
 70
     1
102
RTVSPropertyOp9
 70
     1
102
RTVSPropertyOp10
 70
     1
102
RTVSPropertyOp11
 70
     1
102
RTVSPropertyOp12
 70
     1
102
RTVSPropertyOp13
 70
     1
102
RTVSPropertyOp14
 70
     1
102
RTVSPropertyOp15
 70
     1
102
RTVSPropertyOp16
 70
     1
102
RTVSPropertyOp17
 70
     1
102
RTVSPropertyOp18
 70
     1
102
RTVSPropertyOp19
 70
     1
102
RTVSPropertyOp20
 70
     1
102
RTVSPropertyOp21
 70
     1
102
RTVSPropertyOp22
 70
     1
102
RTVSPropertyOp23
 70
     1
102
RTVSPropertyOp24
 70
     1
102
RTVSPropertyOp25
 70
     1
102
RTVSPropertyOp26
 70
     1
102
RTVSPropertyOp27
 70
     1
102
RTVSPropertyOp28
 70
     1
102
RTVSPropertyOp29
 70
     1
102
RTVSPropertyOp30
 70
     1
102
RTVSPropertyOp31
 70
     1
102
RTVSPropertyOp32
 70
     1
102
RTVSPropertyOp33
 70
     1
102
RTVSPropertyOp34
 70
     1
102
RTVSPropertyOp35
 70
     1
102
RTVSPropertyOp36
 70
     1
102
RTVSPropertyOp37
 70
     1
102
RTVSPropertyOp38
 70
     1
102
RTVSPropertyOp39
 70
     1
102
RTVSPropertyOp40
 70
     1
102
RTVSPropertyOp41
 70
     1
102
RTVSPropertyOp42
 70
     1
102
RTVSPropertyOp43
 70
     1
102
RTVSPropertyOp44
 70
     1
102
RTVSPropertyOp45
 70
     1
102
RTVSPropertyOp46
 70
     1
102
RTVSPropertyOp47
 70
     1
102
RTVSPropertyOp48
 70
     1
102
RTVSPropertyOp49
 70
     1
102
RTVSPropertyOp50
 70
     1
102
RTVSPropertyOp51
 70
     0
102
RTVSPropertyOp52
 70
     0
102
RTVSPropertyOp53
 70
     1
102
RTVSPropertyOp54
 70
     1
102
RTVSPropertyOp55
 70
     1
102
RTVSPropertyOp56
 70
     1
102
RTVSPropertyOp57
 70
     1
102
RTVSPost2010Prop28
280
     0
102
RTVSPost2010PropOp28
 70
     1
102
RTVSPost2010Prop29
280
     1
102
RTVSPost2010PropOp29
 70
     1
102
RTVSPost2010Prop30
280
     1
102
RTVSPost2010PropOp30
 70
     1
102
RTVSPost2010Prop31
280
     0
102
RTVSPost2010PropOp31
 70
     1
102
RTVSPost2010Prop32
280
     0
102
RTVSPost2010PropOp32
 70
     1
102
RTVSPost2010Prop33
280
     0
102
RTVSPost2010PropOp33
 70
     1
102
RTVSPost2010Prop34
280
     0
102
RTVSPost2010PropOp34
 70
     1
102
RTVSPost2010Prop35
280
     0
102
RTVSPost2010PropOp35
 70
     1
102
RTVSPost2010Prop36
280
     0
102
RTVSPost2010PropOp36
 70
     1
102
RTVSPost2010Prop37
 90
       50
102
RTVSPost2010PropOp37
 70
     1
102
RTVSPost2010Prop38
140
0.0
102
RTVSPost2010PropOp38
 70
     1
102
RTVSPost2010Prop39
140
1.0
102
RTVSPost2010PropOp39
 70
     1
102
RTVSPost2010Prop40
 90
        0
102
RTVSPost2010PropOp40
 70
     1
102
RTVSPost2010Prop41ColorIndex
 90
       18
102
RTVSPost2010Prop41ColorRGB
 90
        0
102
RTVSPost2010PropOp41
 70
     1
102
RTVSPost2010Prop42
 90
       50
102
RTVSPost2010PropOp42
 70
     1
102
RTVSPost2010Prop43
 90
        3
102
RTVSPost2010PropOp43
 70
     1
102
RTVSPost2010Prop44ColorIndex
 90
        5
102
RTVSPost2010Prop44ColorRGB
 90
      255
102
RTVSPost2010PropOp44
 70
     1
102
RTVSPost2010Prop45
280
     0
102
RTVSPost2010PropOp45
 70
     1
102
RTVSPost2010Prop46
 90
       50
102
RTVSPost2010PropOp46
 70
     1
102
RTVSPost2010Prop47
 90
       50
102
RTVSPost2010PropOp47
 70
     1
102
RTVSPost2010Prop48
 90
       50
102
RTVSPost2010PropOp48
 70
     1
102
RTVSPost2010Prop49
280
     0
102
RTVSPost2010PropOp49
 70
     1
102
RTVSPost2010Prop50
 90
       50
102
RTVSPost2010PropOp50
 70
     1
102
RTVSPost2010Prop51ColorIndex
 90
      256
102
RTVSPost2010Prop51ColorRGB
 90
-16777216
102
RTVSPost2010PropOp51
 70
     0
102
RTVSPost2010Prop52
140
1.0
102
RTVSPost2010PropOp52
 70
     0
102
RTVSPost2010Prop53
 90
        2
102
RTVSPost2010PropOp53
 70
     1
102
RTVSPost2010Prop54
  1
strokes_ogs.tif
102
RTVSPost2010PropOp54
 70
     1
102
RTVSPost2010Prop55
280
     0
102
RTVSPost2010PropOp55
 70
     1
102
RTVSPost2010Prop56
140
1.0
102
RTVSPost2010PropOp56
 70
     1
102
RTVSPost2010Prop57
140
1.0
102
RTVSPost2010PropOp57
 70
     1
  0
XRECORD
  5
2B0
102
{ACAD_REACTORS
330
2AF
102
}
330
2AF
100
AcDbXrecord
280
     1
102
RTVSPropertyOp0
 70
     1
102
RTVSPropertyOp1
 70
     1
102
RTVSPropertyOp2
 70
     1
102
RTVSPropertyOp3
 70
     1
102
RTVSPropertyOp4
 70
     1
102
RTVSPropertyOp5
 70
     1
102
RTVSPropertyOp6
 70
     1
102
RTVSPropertyOp7
 70
     1
102
RTVSPropertyOp8
 70
     1
102
RTVSPropertyOp9
 70
     1
102
RTVSPropertyOp10
 70
     1
102
RTVSPropertyOp11
 70
     1
102
RTVSPropertyOp12
 70
     1
102
RTVSPropertyOp13
 70
     1
102
RTVSPropertyOp14
 70
     1
102
RTVSPropertyOp15
 70
     1
102
RTVSPropertyOp16
 70
     1
102
RTVSPropertyOp17
 70
     1
102
RTVSPropertyOp18
 70
     1
102
RTVSPropertyOp19
 70
     1
102
RTVSPropertyOp20
 70
     1
102
RTVSPropertyOp21
 70
     1
102
RTVSPropertyOp22
 70
     1
102
RTVSPropertyOp23
 70
     1
102
RTVSPropertyOp24
 70
     1
102
RTVSPropertyOp25
 70
     1
102
RTVSPropertyOp26
 70
     1
102
RTVSPropertyOp27
 70
     1
102
RTVSPropertyOp28
 70
     1
102
RTVSPropertyOp29
 70
     1
102
RTVSPropertyOp30
 70
     1
102
RTVSPropertyOp31
 70
     1
102
RTVSPropertyOp32
 70
     1
102
RTVSPropertyOp33
 70
     1
102
RTVSPropertyOp34
 70
     1
102
RTVSPropertyOp35
 70
     1
102
RTVSPropertyOp36
 70
     1
102
RTVSPropertyOp37
 70
     1
102
RTVSPropertyOp38
 70
     1
102
RTVSPropertyOp39
 70
     1
102
RTVSPropertyOp40
 70
     1
102
RTVSPropertyOp41
 70
     1
102
RTVSPropertyOp42
 70
     1
102
RTVSPropertyOp43
 70
     1
102
RTVSPropertyOp44
 70
     1
102
RTVSPropertyOp45
 70
     1
102
RTVSPropertyOp46
 70
     1
102
RTVSPropertyOp47
 70
     1
102
RTVSPropertyOp48
 70
     1
102
RTVSPropertyOp49
 70
     1
102
RTVSPropertyOp50
 70
     1
102
RTVSPropertyOp51
 70
     0
102
RTVSPropertyOp52
 70
     0
102
RTVSPropertyOp53
 70
     1
102
RTVSPropertyOp54
 70
     1
102
RTVSPropertyOp55
 70
     1
102
RTVSPropertyOp56
 70
     1
102
RTVSPropertyOp57
 70
     1
102
RTVSPost2010Prop28
280
     0
102
RTVSPost2010PropOp28
 70
     1
102
RTVSPost2010Prop29
280
     1
102
RTVSPost2010PropOp29
 70
     1
102
RTVSPost2010Prop30
280
     1
102
RTVSPost2010PropOp30
 70
     1
102
RTVSPost2010Prop31
280
     0
102
RTVSPost2010PropOp31
 70
     1
102
RTVSPost2010Prop32
280
     0
102
RTVSPost2010PropOp32
 70
     1
102
RTVSPost2010Prop33
280
     0
102
RTVSPost2010PropOp33
 70
     1
102
RTVSPost2010Prop34
280
     0
102
RTVSPost2010PropOp34
 70
     1
102
RTVSPost2010Prop35
280
     0
102
RTVSPost2010PropOp35
 70
     1
102
RTVSPost2010Prop36
280
     0
102
RTVSPost2010PropOp36
 70
     1
102
RTVSPost2010Prop37
 90
       50
102
RTVSPost2010PropOp37
 70
     1
102
RTVSPost2010Prop38
140
0.0
102
RTVSPost2010PropOp38
 70
     1
102
RTVSPost2010Prop39
140
1.0
102
RTVSPost2010PropOp39
 70
     1
102
RTVSPost2010Prop40
 90
        0
102
RTVSPost2010PropOp40
 70
     1
102
RTVSPost2010Prop41ColorIndex
 90
       18
102
RTVSPost2010Prop41ColorRGB
 90
        0
102
RTVSPost2010PropOp41
 70
     1
102
RTVSPost2010Prop42
 90
       50
102
RTVSPost2010PropOp42
 70
     1
102
RTVSPost2010Prop43
 90
        3
102
RTVSPost2010PropOp43
 70
     1
102
RTVSPost2010Prop44ColorIndex
 90
        5
102
RTVSPost2010Prop44ColorRGB
 90
      255
102
RTVSPost2010PropOp44
 70
     1
102
RTVSPost2010Prop45
280
     0
102
RTVSPost2010PropOp45
 70
     1
102
RTVSPost2010Prop46
 90
       50
102
RTVSPost2010PropOp46
 70
     1
102
RTVSPost2010Prop47
 90
       50
102
RTVSPost2010PropOp47
 70
     1
102
RTVSPost2010Prop48
 90
       50
102
RTVSPost2010PropOp48
 70
     1
102
RTVSPost2010Prop49
280
     0
102
RTVSPost2010PropOp49
 70
     1
102
RTVSPost2010Prop50
 90
       50
102
RTVSPost2010PropOp50
 70
     1
102
RTVSPost2010Prop51ColorIndex
 90
      256
102
RTVSPost2010Prop51ColorRGB
 90
-16777216
102
RTVSPost2010PropOp51
 70
     0
102
RTVSPost2010Prop52
140
1.0
102
RTVSPost2010PropOp52
 70
     0
102
RTVSPost2010Prop53
 90
        2
102
RTVSPost2010PropOp53
 70
     1
102
RTVSPost2010Prop54
  1
strokes_ogs.tif
102
RTVSPost2010PropOp54
 70
     1
102
RTVSPost2010Prop55
280
     0
102
RTVSPost2010PropOp55
 70
     1
102
RTVSPost2010Prop56
140
1.0
102
RTVSPost2010PropOp56
 70
     1
102
RTVSPost2010Prop57
140
1.0
102
RTVSPost2010PropOp57
 70
     1
  0
XRECORD
  5
2B2
102
{ACAD_REACTORS
330
2B1
102
}
330
2B1
100
AcDbXrecord
280
     1
102
RTVSPropertyOp0
 70
     1
102
RTVSPropertyOp1
 70
     1
102
RTVSPropertyOp2
 70
     1
102
RTVSPropertyOp3
 70
     1
102
RTVSPropertyOp4
 70
     1
102
RTVSPropertyOp5
 70
     1
102
RTVSPropertyOp6
 70
     1
102
RTVSPropertyOp7
 70
     1
102
RTVSPropertyOp8
 70
     1
102
RTVSPropertyOp9
 70
     1
102
RTVSPropertyOp10
 70
     1
102
RTVSPropertyOp11
 70
     1
102
RTVSPropertyOp12
 70
     1
102
RTVSPropertyOp13
 70
     1
102
RTVSPropertyOp14
 70
     1
102
RTVSPropertyOp15
 70
     1
102
RTVSPropertyOp16
 70
     1
102
RTVSPropertyOp17
 70
     1
102
RTVSPropertyOp18
 70
     1
102
RTVSPropertyOp19
 70
     1
102
RTVSPropertyOp20
 70
     1
102
RTVSPropertyOp21
 70
     1
102
RTVSPropertyOp22
 70
     1
102
RTVSPropertyOp23
 70
     1
102
RTVSPropertyOp24
 70
     1
102
RTVSPropertyOp25
 70
     1
102
RTVSPropertyOp26
 70
     1
102
RTVSPropertyOp27
 70
     1
102
RTVSPropertyOp28
 70
     1
102
RTVSPropertyOp29
 70
     1
102
RTVSPropertyOp30
 70
     1
102
RTVSPropertyOp31
 70
     1
102
RTVSPropertyOp32
 70
     1
102
RTVSPropertyOp33
 70
     1
102
RTVSPropertyOp34
 70
     1
102
RTVSPropertyOp35
 70
     1
102
RTVSPropertyOp36
 70
     1
102
RTVSPropertyOp37
 70
     1
102
RTVSPropertyOp38
 70
     1
102
RTVSPropertyOp39
 70
     1
102
RTVSPropertyOp40
 70
     1
102
RTVSPropertyOp41
 70
     1
102
RTVSPropertyOp42
 70
     1
102
RTVSPropertyOp43
 70
     1
102
RTVSPropertyOp44
 70
     1
102
RTVSPropertyOp45
 70
     1
102
RTVSPropertyOp46
 70
     1
102
RTVSPropertyOp47
 70
     1
102
RTVSPropertyOp48
 70
     1
102
RTVSPropertyOp49
 70
     1
102
RTVSPropertyOp50
 70
     1
102
RTVSPropertyOp51
 70
     0
102
RTVSPropertyOp52
 70
     0
102
RTVSPropertyOp53
 70
     1
102
RTVSPropertyOp54
 70
     1
102
RTVSPropertyOp55
 70
     1
102
RTVSPropertyOp56
 70
     1
102
RTVSPropertyOp57
 70
     1
102
RTVSPost2010Prop28
280
     0
102
RTVSPost2010PropOp28
 70
     1
102
RTVSPost2010Prop29
280
     1
102
RTVSPost2010PropOp29
 70
     1
102
RTVSPost2010Prop30
280
     1
102
RTVSPost2010PropOp30
 70
     1
102
RTVSPost2010Prop31
280
     0
102
RTVSPost2010PropOp31
 70
     1
102
RTVSPost2010Prop32
280
     0
102
RTVSPost2010PropOp32
 70
     1
102
RTVSPost2010Prop33
280
     0
102
RTVSPost2010PropOp33
 70
     1
102
RTVSPost2010Prop34
280
     0
102
RTVSPost2010PropOp34
 70
     1
102
RTVSPost2010Prop35
280
     0
102
RTVSPost2010PropOp35
 70
     1
102
RTVSPost2010Prop36
280
     0
102
RTVSPost2010PropOp36
 70
     1
102
RTVSPost2010Prop37
 90
       50
102
RTVSPost2010PropOp37
 70
     1
102
RTVSPost2010Prop38
140
0.0
102
RTVSPost2010PropOp38
 70
     1
102
RTVSPost2010Prop39
140
1.0
102
RTVSPost2010PropOp39
 70
     1
102
RTVSPost2010Prop40
 90
        0
102
RTVSPost2010PropOp40
 70
     1
102
RTVSPost2010Prop41ColorIndex
 90
       18
102
RTVSPost2010Prop41ColorRGB
 90
        0
102
RTVSPost2010PropOp41
 70
     1
102
RTVSPost2010Prop42
 90
       50
102
RTVSPost2010PropOp42
 70
     1
102
RTVSPost2010Prop43
 90
        3
102
RTVSPost2010PropOp43
 70
     1
102
RTVSPost2010Prop44ColorIndex
 90
        5
102
RTVSPost2010Prop44ColorRGB
 90
      255
102
RTVSPost2010PropOp44
 70
     1
102
RTVSPost2010Prop45
280
     0
102
RTVSPost2010PropOp45
 70
     1
102
RTVSPost2010Prop46
 90
       50
102
RTVSPost2010PropOp46
 70
     1
102
RTVSPost2010Prop47
 90
       50
102
RTVSPost2010PropOp47
 70
     1
102
RTVSPost2010Prop48
 90
       50
102
RTVSPost2010PropOp48
 70
     1
102
RTVSPost2010Prop49
280
     0
102
RTVSPost2010PropOp49
 70
     1
102
RTVSPost2010Prop50
 90
       50
102
RTVSPost2010PropOp50
 70
     1
102
RTVSPost2010Prop51ColorIndex
 90
      256
102
RTVSPost2010Prop51ColorRGB
 90
-16777216
102
RTVSPost2010PropOp51
 70
     0
102
RTVSPost2010Prop52
140
1.0
102
RTVSPost2010PropOp52
 70
     0
102
RTVSPost2010Prop53
 90
        2
102
RTVSPost2010PropOp53
 70
     1
102
RTVSPost2010Prop54
  1
strokes_ogs.tif
102
RTVSPost2010PropOp54
 70
     1
102
RTVSPost2010Prop55
280
     0
102
RTVSPost2010PropOp55
 70
     1
102
RTVSPost2010Prop56
140
1.0
102
RTVSPost2010PropOp56
 70
     1
102
RTVSPost2010Prop57
140
1.0
102
RTVSPost2010PropOp57
 70
     1
  0
XRECORD
  5
2C2
102
{ACAD_REACTORS
330
2C1
102
}
330
2C1
100
AcDbXrecord
280
     1
102
RTVSPropertyOp0
 70
     0
102
RTVSPropertyOp1
 70
     0
102
RTVSPropertyOp2
 70
     0
102
RTVSPropertyOp3
 70
     0
102
RTVSPropertyOp4
 70
     0
102
RTVSPropertyOp5
 70
     0
102
RTVSPropertyOp6
 70
     0
102
RTVSPropertyOp7
 70
     0
102
RTVSPropertyOp8
 70
     0
102
RTVSPropertyOp9
 70
     0
102
RTVSPropertyOp10
 70
     0
102
RTVSPropertyOp11
 70
     0
102
RTVSPropertyOp12
 70
     0
102
RTVSPropertyOp13
 70
     0
102
RTVSPropertyOp14
 70
     2
102
RTVSPropertyOp15
 70
     0
102
RTVSPropertyOp16
 70
     0
102
RTVSPropertyOp17
 70
     0
102
RTVSPropertyOp18
 70
     0
102
RTVSPropertyOp19
 70
     0
102
RTVSPropertyOp20
 70
     0
102
RTVSPropertyOp21
 70
     0
102
RTVSPropertyOp22
 70
     0
102
RTVSPropertyOp23
 70
     0
102
RTVSPropertyOp24
 70
     0
102
RTVSPropertyOp25
 70
     0
102
RTVSPropertyOp26
 70
     0
102
RTVSPropertyOp27
 70
     0
102
RTVSPropertyOp28
 70
     0
102
RTVSPropertyOp29
 70
     0
102
RTVSPropertyOp30
 70
     0
102
RTVSPropertyOp31
 70
     0
102
RTVSPropertyOp32
 70
     0
102
RTVSPropertyOp33
 70
     0
102
RTVSPropertyOp34
 70
     0
102
RTVSPropertyOp35
 70
     0
102
RTVSPropertyOp36
 70
     0
102
RTVSPropertyOp37
 70
     0
102
RTVSPropertyOp38
 70
     0
102
RTVSPropertyOp39
 70
     0
102
RTVSPropertyOp40
 70
     0
102
RTVSPropertyOp41
 70
     0
102
RTVSPropertyOp42
 70
     0
102
RTVSPropertyOp43
 70
     0
102
RTVSPropertyOp44
 70
     0
102
RTVSPropertyOp45
 70
     0
102
RTVSPropertyOp46
 70
     0
102
RTVSPropertyOp47
 70
     0
102
RTVSPropertyOp48
 70
     0
102
RTVSPropertyOp49
 70
     0
102
RTVSPropertyOp50
 70
     0
102
RTVSPropertyOp51
 70
     0
102
RTVSPropertyOp52
 70
     0
102
RTVSPropertyOp53
 70
     0
102
RTVSPropertyOp54
 70
     0
102
RTVSPropertyOp55
 70
     0
102
RTVSPropertyOp56
 70
     0
102
RTVSPropertyOp57
 70
     0
102
RTVSPost2010Prop28
280
     0
102
RTVSPost2010PropOp28
 70
     0
102
RTVSPost2010Prop29
280
     1
102
RTVSPost2010PropOp29
 70
     0
102
RTVSPost2010Prop30
280
     1
102
RTVSPost2010PropOp30
 70
     0
102
RTVSPost2010Prop31
280
     0
102
RTVSPost2010PropOp31
 70
     0
102
RTVSPost2010Prop32
280
     0
102
RTVSPost2010PropOp32
 70
     0
102
RTVSPost2010Prop33
280
     0
102
RTVSPost2010PropOp33
 70
     0
102
RTVSPost2010Prop34
280
     0
102
RTVSPost2010PropOp34
 70
     0
102
RTVSPost2010Prop35
280
     0
102
RTVSPost2010PropOp35
 70
     0
102
RTVSPost2010Prop36
280
     0
102
RTVSPost2010PropOp36
 70
     0
102
RTVSPost2010Prop37
 90
       50
102
RTVSPost2010PropOp37
 70
     0
102
RTVSPost2010Prop38
140
0.0
102
RTVSPost2010PropOp38
 70
     0
102
RTVSPost2010Prop39
140
1.0
102
RTVSPost2010PropOp39
 70
     0
102
RTVSPost2010Prop40
 90
        0
102
RTVSPost2010PropOp40
 70
     0
102
RTVSPost2010Prop41ColorIndex
 90
       18
102
RTVSPost2010Prop41ColorRGB
 90
        0
102
RTVSPost2010PropOp41
 70
     0
102
RTVSPost2010Prop42
 90
       50
102
RTVSPost2010PropOp42
 70
     0
102
RTVSPost2010Prop43
 90
        3
102
RTVSPost2010PropOp43
 70
     0
102
RTVSPost2010Prop44ColorIndex
 90
        5
102
RTVSPost2010Prop44ColorRGB
 90
      255
102
RTVSPost2010PropOp44
 70
     0
102
RTVSPost2010Prop45
280
     0
102
RTVSPost2010PropOp45
 70
     0
102
RTVSPost2010Prop46
 90
       50
102
RTVSPost2010PropOp46
 70
     0
102
RTVSPost2010Prop47
 90
       50
102
RTVSPost2010PropOp47
 70
     0
102
RTVSPost2010Prop48
 90
       50
102
RTVSPost2010PropOp48
 70
     0
102
RTVSPost2010Prop49
280
     0
102
RTVSPost2010PropOp49
 70
     0
102
RTVSPost2010Prop50
 90
       50
102
RTVSPost2010PropOp50
 70
     0
102
RTVSPost2010Prop51ColorIndex
 90
      256
102
RTVSPost2010Prop51ColorRGB
 90
-16777216
102
RTVSPost2010PropOp51
 70
     0
102
RTVSPost2010Prop52
140
1.0
102
RTVSPost2010PropOp52
 70
     0
102
RTVSPost2010Prop53
 90
        2
102
RTVSPost2010PropOp53
 70
     0
102
RTVSPost2010Prop54
  1
strokes_ogs.tif
102
RTVSPost2010PropOp54
 70
     0
102
RTVSPost2010Prop55
280
     0
102
RTVSPost2010PropOp55
 70
     0
102
RTVSPost2010Prop56
140
1.0
102
RTVSPost2010PropOp56
 70
     0
102
RTVSPost2010Prop57
140
1.0
102
RTVSPost2010PropOp57
 70
     0
  0
XRECORD
  5
2BA
102
{ACAD_REACTORS
330
2B9
102
}
330
2B9
100
AcDbXrecord
280
     1
102
RTVSPropertyOp0
 70
     1
102
RTVSPropertyOp1
 70
     1
102
RTVSPropertyOp2
 70
     1
102
RTVSPropertyOp3
 70
     1
102
RTVSPropertyOp4
 70
     1
102
RTVSPropertyOp5
 70
     1
102
RTVSPropertyOp6
 70
     1
102
RTVSPropertyOp7
 70
     1
102
RTVSPropertyOp8
 70
     1
102
RTVSPropertyOp9
 70
     1
102
RTVSPropertyOp10
 70
     1
102
RTVSPropertyOp11
 70
     1
102
RTVSPropertyOp12
 70
     1
102
RTVSPropertyOp13
 70
     1
102
RTVSPropertyOp14
 70
     1
102
RTVSPropertyOp15
 70
     1
102
RTVSPropertyOp16
 70
     1
102
RTVSPropertyOp17
 70
     1
102
RTVSPropertyOp18
 70
     1
102
RTVSPropertyOp19
 70
     1
102
RTVSPropertyOp20
 70
     1
102
RTVSPropertyOp21
 70
     1
102
RTVSPropertyOp22
 70
     1
102
RTVSPropertyOp23
 70
     1
102
RTVSPropertyOp24
 70
     1
102
RTVSPropertyOp25
 70
     1
102
RTVSPropertyOp26
 70
     1
102
RTVSPropertyOp27
 70
     1
102
RTVSPropertyOp28
 70
     1
102
RTVSPropertyOp29
 70
     1
102
RTVSPropertyOp30
 70
     1
102
RTVSPropertyOp31
 70
     1
102
RTVSPropertyOp32
 70
     1
102
RTVSPropertyOp33
 70
     1
102
RTVSPropertyOp34
 70
     1
102
RTVSPropertyOp35
 70
     1
102
RTVSPropertyOp36
 70
     1
102
RTVSPropertyOp37
 70
     1
102
RTVSPropertyOp38
 70
     1
102
RTVSPropertyOp39
 70
     1
102
RTVSPropertyOp40
 70
     1
102
RTVSPropertyOp41
 70
     1
102
RTVSPropertyOp42
 70
     1
102
RTVSPropertyOp43
 70
     1
102
RTVSPropertyOp44
 70
     1
102
RTVSPropertyOp45
 70
     1
102
RTVSPropertyOp46
 70
     1
102
RTVSPropertyOp47
 70
     1
102
RTVSPropertyOp48
 70
     1
102
RTVSPropertyOp49
 70
     1
102
RTVSPropertyOp50
 70
     1
102
RTVSPropertyOp51
 70
     0
102
RTVSPropertyOp52
 70
     0
102
RTVSPropertyOp53
 70
     1
102
RTVSPropertyOp54
 70
     1
102
RTVSPropertyOp55
 70
     1
102
RTVSPropertyOp56
 70
     1
102
RTVSPropertyOp57
 70
     1
102
RTVSPost2010Prop28
280
     0
102
RTVSPost2010PropOp28
 70
     1
102
RTVSPost2010Prop29
280
     1
102
RTVSPost2010PropOp29
 70
     1
102
RTVSPost2010Prop30
280
     1
102
RTVSPost2010PropOp30
 70
     1
102
RTVSPost2010Prop31
280
     0
102
RTVSPost2010PropOp31
 70
     1
102
RTVSPost2010Prop32
280
     0
102
RTVSPost2010PropOp32
 70
     1
102
RTVSPost2010Prop33
280
     0
102
RTVSPost2010PropOp33
 70
     1
102
RTVSPost2010Prop34
280
     0
102
RTVSPost2010PropOp34
 70
     1
102
RTVSPost2010Prop35
280
     0
102
RTVSPost2010PropOp35
 70
     1
102
RTVSPost2010Prop36
280
     0
102
RTVSPost2010PropOp36
 70
     1
102
RTVSPost2010Prop37
 90
       50
102
RTVSPost2010PropOp37
 70
     1
102
RTVSPost2010Prop38
140
0.0
102
RTVSPost2010PropOp38
 70
     1
102
RTVSPost2010Prop39
140
1.0
102
RTVSPost2010PropOp39
 70
     1
102
RTVSPost2010Prop40
 90
        0
102
RTVSPost2010PropOp40
 70
     1
102
RTVSPost2010Prop41ColorIndex
 90
       18
102
RTVSPost2010Prop41ColorRGB
 90
        0
102
RTVSPost2010PropOp41
 70
     1
102
RTVSPost2010Prop42
 90
       50
102
RTVSPost2010PropOp42
 70
     1
102
RTVSPost2010Prop43
 90
        3
102
RTVSPost2010PropOp43
 70
     1
102
RTVSPost2010Prop44ColorIndex
 90
        5
102
RTVSPost2010Prop44ColorRGB
 90
      255
102
RTVSPost2010PropOp44
 70
     1
102
RTVSPost2010Prop45
280
     0
102
RTVSPost2010PropOp45
 70
     1
102
RTVSPost2010Prop46
 90
       50
102
RTVSPost2010PropOp46
 70
     1
102
RTVSPost2010Prop47
 90
       50
102
RTVSPost2010PropOp47
 70
     1
102
RTVSPost2010Prop48
 90
       50
102
RTVSPost2010PropOp48
 70
     1
102
RTVSPost2010Prop49
280
     0
102
RTVSPost2010PropOp49
 70
     1
102
RTVSPost2010Prop50
 90
       50
102
RTVSPost2010PropOp50
 70
     1
102
RTVSPost2010Prop51ColorIndex
 90
      256
102
RTVSPost2010Prop51ColorRGB
 90
-16777216
102
RTVSPost2010PropOp51
 70
     0
102
RTVSPost2010Prop52
140
1.0
102
RTVSPost2010PropOp52
 70
     0
102
RTVSPost2010Prop53
 90
        2
102
RTVSPost2010PropOp53
 70
     1
102
RTVSPost2010Prop54
  1
strokes_ogs.tif
102
RTVSPost2010PropOp54
 70
     1
102
RTVSPost2010Prop55
280
     0
102
RTVSPost2010PropOp55
 70
     1
102
RTVSPost2010Prop56
140
1.0
102
RTVSPost2010PropOp56
 70
     1
102
RTVSPost2010Prop57
140
1.0
102
RTVSPost2010PropOp57
 70
     1
  0
XRECORD
  5
29E
102
{ACAD_REACTORS
330
29D
102
}
330
29D
100
AcDbXrecord
280
     1
102
RTVSPropertyOp0
 70
     1
102
RTVSPropertyOp1
 70
     1
102
RTVSPropertyOp2
 70
     1
102
RTVSPropertyOp3
 70
     1
102
RTVSPropertyOp4
 70
     1
102
RTVSPropertyOp5
 70
     1
102
RTVSPropertyOp6
 70
     1
102
RTVSPropertyOp7
 70
     1
102
RTVSPropertyOp8
 70
     1
102
RTVSPropertyOp9
 70
     1
102
RTVSPropertyOp10
 70
     1
102
RTVSPropertyOp11
 70
     1
102
RTVSPropertyOp12
 70
     1
102
RTVSPropertyOp13
 70
     1
102
RTVSPropertyOp14
 70
     1
102
RTVSPropertyOp15
 70
     1
102
RTVSPropertyOp16
 70
     1
102
RTVSPropertyOp17
 70
     1
102
RTVSPropertyOp18
 70
     1
102
RTVSPropertyOp19
 70
     1
102
RTVSPropertyOp20
 70
     1
102
RTVSPropertyOp21
 70
     1
102
RTVSPropertyOp22
 70
     1
102
RTVSPropertyOp23
 70
     1
102
RTVSPropertyOp24
 70
     1
102
RTVSPropertyOp25
 70
     1
102
RTVSPropertyOp26
 70
     1
102
RTVSPropertyOp27
 70
     1
102
RTVSPropertyOp28
 70
     1
102
RTVSPropertyOp29
 70
     1
102
RTVSPropertyOp30
 70
     1
102
RTVSPropertyOp31
 70
     1
102
RTVSPropertyOp32
 70
     1
102
RTVSPropertyOp33
 70
     1
102
RTVSPropertyOp34
 70
     1
102
RTVSPropertyOp35
 70
     1
102
RTVSPropertyOp36
 70
     1
102
RTVSPropertyOp37
 70
     1
102
RTVSPropertyOp38
 70
     1
102
RTVSPropertyOp39
 70
     1
102
RTVSPropertyOp40
 70
     1
102
RTVSPropertyOp41
 70
     1
102
RTVSPropertyOp42
 70
     1
102
RTVSPropertyOp43
 70
     1
102
RTVSPropertyOp44
 70
     1
102
RTVSPropertyOp45
 70
     1
102
RTVSPropertyOp46
 70
     1
102
RTVSPropertyOp47
 70
     1
102
RTVSPropertyOp48
 70
     1
102
RTVSPropertyOp49
 70
     1
102
RTVSPropertyOp50
 70
     1
102
RTVSPropertyOp51
 70
     0
102
RTVSPropertyOp52
 70
     0
102
RTVSPropertyOp53
 70
     1
102
RTVSPropertyOp54
 70
     1
102
RTVSPropertyOp55
 70
     1
102
RTVSPropertyOp56
 70
     1
102
RTVSPropertyOp57
 70
     1
102
RTVSPost2010Prop28
280
     0
102
RTVSPost2010PropOp28
 70
     1
102
RTVSPost2010Prop29
280
     1
102
RTVSPost2010PropOp29
 70
     1
102
RTVSPost2010Prop30
280
     1
102
RTVSPost2010PropOp30
 70
     1
102
RTVSPost2010Prop31
280
     0
102
RTVSPost2010PropOp31
 70
     1
102
RTVSPost2010Prop32
280
     0
102
RTVSPost2010PropOp32
 70
     1
102
RTVSPost2010Prop33
280
     0
102
RTVSPost2010PropOp33
 70
     1
102
RTVSPost2010Prop34
280
     0
102
RTVSPost2010PropOp34
 70
     1
102
RTVSPost2010Prop35
280
     0
102
RTVSPost2010PropOp35
 70
     1
102
RTVSPost2010Prop36
280
     0
102
RTVSPost2010PropOp36
 70
     1
102
RTVSPost2010Prop37
 90
       50
102
RTVSPost2010PropOp37
 70
     1
102
RTVSPost2010Prop38
140
0.0
102
RTVSPost2010PropOp38
 70
     1
102
RTVSPost2010Prop39
140
1.0
102
RTVSPost2010PropOp39
 70
     1
102
RTVSPost2010Prop40
 90
        0
102
RTVSPost2010PropOp40
 70
     1
102
RTVSPost2010Prop41ColorIndex
 90
       18
102
RTVSPost2010Prop41ColorRGB
 90
        0
102
RTVSPost2010PropOp41
 70
     1
102
RTVSPost2010Prop42
 90
       50
102
RTVSPost2010PropOp42
 70
     1
102
RTVSPost2010Prop43
 90
        3
102
RTVSPost2010PropOp43
 70
     1
102
RTVSPost2010Prop44ColorIndex
 90
        5
102
RTVSPost2010Prop44ColorRGB
 90
      255
102
RTVSPost2010PropOp44
 70
     1
102
RTVSPost2010Prop45
280
     0
102
RTVSPost2010PropOp45
 70
     1
102
RTVSPost2010Prop46
 90
       50
102
RTVSPost2010PropOp46
 70
     1
102
RTVSPost2010Prop47
 90
       50
102
RTVSPost2010PropOp47
 70
     1
102
RTVSPost2010Prop48
 90
       50
102
RTVSPost2010PropOp48
 70
     1
102
RTVSPost2010Prop49
280
     0
102
RTVSPost2010PropOp49
 70
     1
102
RTVSPost2010Prop50
 90
       50
102
RTVSPost2010PropOp50
 70
     1
102
RTVSPost2010Prop51ColorIndex
 90
      256
102
RTVSPost2010Prop51ColorRGB
 90
-16777216
102
RTVSPost2010PropOp51
 70
     0
102
RTVSPost2010Prop52
140
1.0
102
RTVSPost2010PropOp52
 70
     0
102
RTVSPost2010Prop53
 90
        2
102
RTVSPost2010PropOp53
 70
     1
102
RTVSPost2010Prop54
  1
strokes_ogs.tif
102
RTVSPost2010PropOp54
 70
     1
102
RTVSPost2010Prop55
280
     0
102
RTVSPost2010PropOp55
 70
     1
102
RTVSPost2010Prop56
140
1.0
102
RTVSPost2010PropOp56
 70
     1
102
RTVSPost2010Prop57
140
1.0
102
RTVSPost2010PropOp57
 70
     1
  0
XRECORD
  5
2A0
102
{ACAD_REACTORS
330
29F
102
}
330
29F
100
AcDbXrecord
280
     1
102
RTVSPropertyOp0
 70
     1
102
RTVSPropertyOp1
 70
     1
102
RTVSPropertyOp2
 70
     1
102
RTVSPropertyOp3
 70
     1
102
RTVSPropertyOp4
 70
     1
102
RTVSPropertyOp5
 70
     1
102
RTVSPropertyOp6
 70
     1
102
RTVSPropertyOp7
 70
     1
102
RTVSPropertyOp8
 70
     1
102
RTVSPropertyOp9
 70
     1
102
RTVSPropertyOp10
 70
     1
102
RTVSPropertyOp11
 70
     1
102
RTVSPropertyOp12
 70
     1
102
RTVSPropertyOp13
 70
     1
102
RTVSPropertyOp14
 70
     1
102
RTVSPropertyOp15
 70
     1
102
RTVSPropertyOp16
 70
     1
102
RTVSPropertyOp17
 70
     1
102
RTVSPropertyOp18
 70
     1
102
RTVSPropertyOp19
 70
     1
102
RTVSPropertyOp20
 70
     1
102
RTVSPropertyOp21
 70
     1
102
RTVSPropertyOp22
 70
     1
102
RTVSPropertyOp23
 70
     1
102
RTVSPropertyOp24
 70
     1
102
RTVSPropertyOp25
 70
     1
102
RTVSPropertyOp26
 70
     1
102
RTVSPropertyOp27
 70
     1
102
RTVSPropertyOp28
 70
     1
102
RTVSPropertyOp29
 70
     1
102
RTVSPropertyOp30
 70
     1
102
RTVSPropertyOp31
 70
     1
102
RTVSPropertyOp32
 70
     1
102
RTVSPropertyOp33
 70
     1
102
RTVSPropertyOp34
 70
     1
102
RTVSPropertyOp35
 70
     1
102
RTVSPropertyOp36
 70
     1
102
RTVSPropertyOp37
 70
     1
102
RTVSPropertyOp38
 70
     1
102
RTVSPropertyOp39
 70
     1
102
RTVSPropertyOp40
 70
     1
102
RTVSPropertyOp41
 70
     1
102
RTVSPropertyOp42
 70
     1
102
RTVSPropertyOp43
 70
     1
102
RTVSPropertyOp44
 70
     1
102
RTVSPropertyOp45
 70
     1
102
RTVSPropertyOp46
 70
     1
102
RTVSPropertyOp47
 70
     1
102
RTVSPropertyOp48
 70
     1
102
RTVSPropertyOp49
 70
     1
102
RTVSPropertyOp50
 70
     1
102
RTVSPropertyOp51
 70
     0
102
RTVSPropertyOp52
 70
     0
102
RTVSPropertyOp53
 70
     1
102
RTVSPropertyOp54
 70
     1
102
RTVSPropertyOp55
 70
     1
102
RTVSPropertyOp56
 70
     1
102
RTVSPropertyOp57
 70
     1
102
RTVSPost2010Prop28
280
     0
102
RTVSPost2010PropOp28
 70
     1
102
RTVSPost2010Prop29
280
     1
102
RTVSPost2010PropOp29
 70
     1
102
RTVSPost2010Prop30
280
     1
102
RTVSPost2010PropOp30
 70
     1
102
RTVSPost2010Prop31
280
     0
102
RTVSPost2010PropOp31
 70
     1
102
RTVSPost2010Prop32
280
     0
102
RTVSPost2010PropOp32
 70
     1
102
RTVSPost2010Prop33
280
     0
102
RTVSPost2010PropOp33
 70
     1
102
RTVSPost2010Prop34
280
     0
102
RTVSPost2010PropOp34
 70
     1
102
RTVSPost2010Prop35
280
     0
102
RTVSPost2010PropOp35
 70
     1
102
RTVSPost2010Prop36
280
     0
102
RTVSPost2010PropOp36
 70
     1
102
RTVSPost2010Prop37
 90
       50
102
RTVSPost2010PropOp37
 70
     1
102
RTVSPost2010Prop38
140
0.0
102
RTVSPost2010PropOp38
 70
     1
102
RTVSPost2010Prop39
140
1.0
102
RTVSPost2010PropOp39
 70
     1
102
RTVSPost2010Prop40
 90
        0
102
RTVSPost2010PropOp40
 70
     1
102
RTVSPost2010Prop41ColorIndex
 90
       18
102
RTVSPost2010Prop41ColorRGB
 90
        0
102
RTVSPost2010PropOp41
 70
     1
102
RTVSPost2010Prop42
 90
       50
102
RTVSPost2010PropOp42
 70
     1
102
RTVSPost2010Prop43
 90
        3
102
RTVSPost2010PropOp43
 70
     1
102
RTVSPost2010Prop44ColorIndex
 90
        5
102
RTVSPost2010Prop44ColorRGB
 90
      255
102
RTVSPost2010PropOp44
 70
     1
102
RTVSPost2010Prop45
280
     0
102
RTVSPost2010PropOp45
 70
     1
102
RTVSPost2010Prop46
 90
       50
102
RTVSPost2010PropOp46
 70
     1
102
RTVSPost2010Prop47
 90
       50
102
RTVSPost2010PropOp47
 70
     1
102
RTVSPost2010Prop48
 90
       50
102
RTVSPost2010PropOp48
 70
     1
102
RTVSPost2010Prop49
280
     0
102
RTVSPost2010PropOp49
 70
     1
102
RTVSPost2010Prop50
 90
       50
102
RTVSPost2010PropOp50
 70
     1
102
RTVSPost2010Prop51ColorIndex
 90
      256
102
RTVSPost2010Prop51ColorRGB
 90
-16777216
102
RTVSPost2010PropOp51
 70
     0
102
RTVSPost2010Prop52
140
1.0
102
RTVSPost2010PropOp52
 70
     0
102
RTVSPost2010Prop53
 90
        2
102
RTVSPost2010PropOp53
 70
     1
102
RTVSPost2010Prop54
  1
strokes_ogs.tif
102
RTVSPost2010PropOp54
 70
     1
102
RTVSPost2010Prop55
280
     0
102
RTVSPost2010PropOp55
 70
     1
102
RTVSPost2010Prop56
140
1.0
102
RTVSPost2010PropOp56
 70
     1
102
RTVSPost2010Prop57
140
1.0
102
RTVSPost2010PropOp57
 70
     1
  0
XRECORD
  5
2A2
102
{ACAD_REACTORS
330
2A1
102
}
330
2A1
100
AcDbXrecord
280
     1
102
RTVSPropertyOp0
 70
     1
102
RTVSPropertyOp1
 70
     1
102
RTVSPropertyOp2
 70
     1
102
RTVSPropertyOp3
 70
     1
102
RTVSPropertyOp4
 70
     1
102
RTVSPropertyOp5
 70
     1
102
RTVSPropertyOp6
 70
     1
102
RTVSPropertyOp7
 70
     1
102
RTVSPropertyOp8
 70
     1
102
RTVSPropertyOp9
 70
     1
102
RTVSPropertyOp10
 70
     1
102
RTVSPropertyOp11
 70
     1
102
RTVSPropertyOp12
 70
     1
102
RTVSPropertyOp13
 70
     1
102
RTVSPropertyOp14
 70
     1
102
RTVSPropertyOp15
 70
     1
102
RTVSPropertyOp16
 70
     1
102
RTVSPropertyOp17
 70
     1
102
RTVSPropertyOp18
 70
     1
102
RTVSPropertyOp19
 70
     1
102
RTVSPropertyOp20
 70
     1
102
RTVSPropertyOp21
 70
     1
102
RTVSPropertyOp22
 70
     1
102
RTVSPropertyOp23
 70
     1
102
RTVSPropertyOp24
 70
     1
102
RTVSPropertyOp25
 70
     1
102
RTVSPropertyOp26
 70
     1
102
RTVSPropertyOp27
 70
     1
102
RTVSPropertyOp28
 70
     1
102
RTVSPropertyOp29
 70
     1
102
RTVSPropertyOp30
 70
     1
102
RTVSPropertyOp31
 70
     1
102
RTVSPropertyOp32
 70
     1
102
RTVSPropertyOp33
 70
     1
102
RTVSPropertyOp34
 70
     1
102
RTVSPropertyOp35
 70
     1
102
RTVSPropertyOp36
 70
     1
102
RTVSPropertyOp37
 70
     1
102
RTVSPropertyOp38
 70
     1
102
RTVSPropertyOp39
 70
     1
102
RTVSPropertyOp40
 70
     1
102
RTVSPropertyOp41
 70
     1
102
RTVSPropertyOp42
 70
     1
102
RTVSPropertyOp43
 70
     1
102
RTVSPropertyOp44
 70
     1
102
RTVSPropertyOp45
 70
     1
102
RTVSPropertyOp46
 70
     1
102
RTVSPropertyOp47
 70
     1
102
RTVSPropertyOp48
 70
     1
102
RTVSPropertyOp49
 70
     1
102
RTVSPropertyOp50
 70
     1
102
RTVSPropertyOp51
 70
     0
102
RTVSPropertyOp52
 70
     0
102
RTVSPropertyOp53
 70
     1
102
RTVSPropertyOp54
 70
     1
102
RTVSPropertyOp55
 70
     1
102
RTVSPropertyOp56
 70
     1
102
RTVSPropertyOp57
 70
     1
102
RTVSPost2010Prop28
280
     0
102
RTVSPost2010PropOp28
 70
     1
102
RTVSPost2010Prop29
280
     1
102
RTVSPost2010PropOp29
 70
     1
102
RTVSPost2010Prop30
280
     1
102
RTVSPost2010PropOp30
 70
     1
102
RTVSPost2010Prop31
280
     0
102
RTVSPost2010PropOp31
 70
     1
102
RTVSPost2010Prop32
280
     0
102
RTVSPost2010PropOp32
 70
     1
102
RTVSPost2010Prop33
280
     0
102
RTVSPost2010PropOp33
 70
     1
102
RTVSPost2010Prop34
280
     0
102
RTVSPost2010PropOp34
 70
     1
102
RTVSPost2010Prop35
280
     0
102
RTVSPost2010PropOp35
 70
     1
102
RTVSPost2010Prop36
280
     0
102
RTVSPost2010PropOp36
 70
     1
102
RTVSPost2010Prop37
 90
       50
102
RTVSPost2010PropOp37
 70
     1
102
RTVSPost2010Prop38
140
0.0
102
RTVSPost2010PropOp38
 70
     1
102
RTVSPost2010Prop39
140
1.0
102
RTVSPost2010PropOp39
 70
     1
102
RTVSPost2010Prop40
 90
        0
102
RTVSPost2010PropOp40
 70
     1
102
RTVSPost2010Prop41ColorIndex
 90
       18
102
RTVSPost2010Prop41ColorRGB
 90
        0
102
RTVSPost2010PropOp41
 70
     1
102
RTVSPost2010Prop42
 90
       50
102
RTVSPost2010PropOp42
 70
     1
102
RTVSPost2010Prop43
 90
        3
102
RTVSPost2010PropOp43
 70
     1
102
RTVSPost2010Prop44ColorIndex
 90
        5
102
RTVSPost2010Prop44ColorRGB
 90
      255
102
RTVSPost2010PropOp44
 70
     1
102
RTVSPost2010Prop45
280
     0
102
RTVSPost2010PropOp45
 70
     1
102
RTVSPost2010Prop46
 90
       50
102
RTVSPost2010PropOp46
 70
     1
102
RTVSPost2010Prop47
 90
       50
102
RTVSPost2010PropOp47
 70
     1
102
RTVSPost2010Prop48
 90
       50
102
RTVSPost2010PropOp48
 70
     1
102
RTVSPost2010Prop49
280
     0
102
RTVSPost2010PropOp49
 70
     1
102
RTVSPost2010Prop50
 90
       50
102
RTVSPost2010PropOp50
 70
     1
102
RTVSPost2010Prop51ColorIndex
 90
      256
102
RTVSPost2010Prop51ColorRGB
 90
-16777216
102
RTVSPost2010PropOp51
 70
     0
102
RTVSPost2010Prop52
140
1.0
102
RTVSPost2010PropOp52
 70
     0
102
RTVSPost2010Prop53
 90
        2
102
RTVSPost2010PropOp53
 70
     1
102
RTVSPost2010Prop54
  1
strokes_ogs.tif
102
RTVSPost2010PropOp54
 70
     1
102
RTVSPost2010Prop55
280
     0
102
RTVSPost2010PropOp55
 70
     1
102
RTVSPost2010Prop56
140
1.0
102
RTVSPost2010PropOp56
 70
     1
102
RTVSPost2010Prop57
140
1.0
102
RTVSPost2010PropOp57
 70
     1
  0
XRECORD
  5
2A4
102
{ACAD_REACTORS
330
2A3
102
}
330
2A3
100
AcDbXrecord
280
     1
102
RTVSPropertyOp0
 70
     1
102
RTVSPropertyOp1
 70
     1
102
RTVSPropertyOp2
 70
     1
102
RTVSPropertyOp3
 70
     1
102
RTVSPropertyOp4
 70
     1
102
RTVSPropertyOp5
 70
     1
102
RTVSPropertyOp6
 70
     1
102
RTVSPropertyOp7
 70
     1
102
RTVSPropertyOp8
 70
     1
102
RTVSPropertyOp9
 70
     1
102
RTVSPropertyOp10
 70
     1
102
RTVSPropertyOp11
 70
     1
102
RTVSPropertyOp12
 70
     1
102
RTVSPropertyOp13
 70
     1
102
RTVSPropertyOp14
 70
     1
102
RTVSPropertyOp15
 70
     1
102
RTVSPropertyOp16
 70
     1
102
RTVSPropertyOp17
 70
     1
102
RTVSPropertyOp18
 70
     1
102
RTVSPropertyOp19
 70
     1
102
RTVSPropertyOp20
 70
     1
102
RTVSPropertyOp21
 70
     1
102
RTVSPropertyOp22
 70
     1
102
RTVSPropertyOp23
 70
     1
102
RTVSPropertyOp24
 70
     1
102
RTVSPropertyOp25
 70
     1
102
RTVSPropertyOp26
 70
     1
102
RTVSPropertyOp27
 70
     1
102
RTVSPropertyOp28
 70
     1
102
RTVSPropertyOp29
 70
     1
102
RTVSPropertyOp30
 70
     1
102
RTVSPropertyOp31
 70
     1
102
RTVSPropertyOp32
 70
     1
102
RTVSPropertyOp33
 70
     1
102
RTVSPropertyOp34
 70
     1
102
RTVSPropertyOp35
 70
     1
102
RTVSPropertyOp36
 70
     1
102
RTVSPropertyOp37
 70
     1
102
RTVSPropertyOp38
 70
     1
102
RTVSPropertyOp39
 70
     1
102
RTVSPropertyOp40
 70
     1
102
RTVSPropertyOp41
 70
     1
102
RTVSPropertyOp42
 70
     1
102
RTVSPropertyOp43
 70
     1
102
RTVSPropertyOp44
 70
     1
102
RTVSPropertyOp45
 70
     1
102
RTVSPropertyOp46
 70
     1
102
RTVSPropertyOp47
 70
     1
102
RTVSPropertyOp48
 70
     1
102
RTVSPropertyOp49
 70
     1
102
RTVSPropertyOp50
 70
     1
102
RTVSPropertyOp51
 70
     0
102
RTVSPropertyOp52
 70
     0
102
RTVSPropertyOp53
 70
     1
102
RTVSPropertyOp54
 70
     1
102
RTVSPropertyOp55
 70
     1
102
RTVSPropertyOp56
 70
     1
102
RTVSPropertyOp57
 70
     1
102
RTVSPost2010Prop28
280
     0
102
RTVSPost2010PropOp28
 70
     1
102
RTVSPost2010Prop29
280
     1
102
RTVSPost2010PropOp29
 70
     1
102
RTVSPost2010Prop30
280
     1
102
RTVSPost2010PropOp30
 70
     1
102
RTVSPost2010Prop31
280
     0
102
RTVSPost2010PropOp31
 70
     1
102
RTVSPost2010Prop32
280
     0
102
RTVSPost2010PropOp32
 70
     1
102
RTVSPost2010Prop33
280
     0
102
RTVSPost2010PropOp33
 70
     1
102
RTVSPost2010Prop34
280
     0
102
RTVSPost2010PropOp34
 70
     1
102
RTVSPost2010Prop35
280
     0
102
RTVSPost2010PropOp35
 70
     1
102
RTVSPost2010Prop36
280
     0
102
RTVSPost2010PropOp36
 70
     1
102
RTVSPost2010Prop37
 90
       50
102
RTVSPost2010PropOp37
 70
     1
102
RTVSPost2010Prop38
140
0.0
102
RTVSPost2010PropOp38
 70
     1
102
RTVSPost2010Prop39
140
1.0
102
RTVSPost2010PropOp39
 70
     1
102
RTVSPost2010Prop40
 90
        0
102
RTVSPost2010PropOp40
 70
     1
102
RTVSPost2010Prop41ColorIndex
 90
       18
102
RTVSPost2010Prop41ColorRGB
 90
        0
102
RTVSPost2010PropOp41
 70
     1
102
RTVSPost2010Prop42
 90
       50
102
RTVSPost2010PropOp42
 70
     1
102
RTVSPost2010Prop43
 90
        3
102
RTVSPost2010PropOp43
 70
     1
102
RTVSPost2010Prop44ColorIndex
 90
        5
102
RTVSPost2010Prop44ColorRGB
 90
      255
102
RTVSPost2010PropOp44
 70
     1
102
RTVSPost2010Prop45
280
     0
102
RTVSPost2010PropOp45
 70
     1
102
RTVSPost2010Prop46
 90
       50
102
RTVSPost2010PropOp46
 70
     1
102
RTVSPost2010Prop47
 90
       50
102
RTVSPost2010PropOp47
 70
     1
102
RTVSPost2010Prop48
 90
       50
102
RTVSPost2010PropOp48
 70
     1
102
RTVSPost2010Prop49
280
     0
102
RTVSPost2010PropOp49
 70
     1
102
RTVSPost2010Prop50
 90
       50
102
RTVSPost2010PropOp50
 70
     1
102
RTVSPost2010Prop51ColorIndex
 90
      256
102
RTVSPost2010Prop51ColorRGB
 90
-16777216
102
RTVSPost2010PropOp51
 70
     0
102
RTVSPost2010Prop52
140
1.0
102
RTVSPost2010PropOp52
 70
     0
102
RTVSPost2010Prop53
 90
        2
102
RTVSPost2010PropOp53
 70
     1
102
RTVSPost2010Prop54
  1
strokes_ogs.tif
102
RTVSPost2010PropOp54
 70
     1
102
RTVSPost2010Prop55
280
     0
102
RTVSPost2010PropOp55
 70
     1
102
RTVSPost2010Prop56
140
1.0
102
RTVSPost2010PropOp56
 70
     1
102
RTVSPost2010Prop57
140
1.0
102
RTVSPost2010PropOp57
 70
     1
  0
XRECORD
  5
2AA
102
{ACAD_REACTORS
330
2A9
102
}
330
2A9
100
AcDbXrecord
280
     1
102
RTVSPropertyOp0
 70
     1
102
RTVSPropertyOp1
 70
     1
102
RTVSPropertyOp2
 70
     1
102
RTVSPropertyOp3
 70
     1
102
RTVSPropertyOp4
 70
     1
102
RTVSPropertyOp5
 70
     1
102
RTVSPropertyOp6
 70
     1
102
RTVSPropertyOp7
 70
     1
102
RTVSPropertyOp8
 70
     1
102
RTVSPropertyOp9
 70
     1
102
RTVSPropertyOp10
 70
     1
102
RTVSPropertyOp11
 70
     1
102
RTVSPropertyOp12
 70
     1
102
RTVSPropertyOp13
 70
     1
102
RTVSPropertyOp14
 70
     1
102
RTVSPropertyOp15
 70
     1
102
RTVSPropertyOp16
 70
     1
102
RTVSPropertyOp17
 70
     1
102
RTVSPropertyOp18
 70
     1
102
RTVSPropertyOp19
 70
     1
102
RTVSPropertyOp20
 70
     1
102
RTVSPropertyOp21
 70
     1
102
RTVSPropertyOp22
 70
     1
102
RTVSPropertyOp23
 70
     1
102
RTVSPropertyOp24
 70
     1
102
RTVSPropertyOp25
 70
     1
102
RTVSPropertyOp26
 70
     1
102
RTVSPropertyOp27
 70
     1
102
RTVSPropertyOp28
 70
     1
102
RTVSPropertyOp29
 70
     1
102
RTVSPropertyOp30
 70
     1
102
RTVSPropertyOp31
 70
     1
102
RTVSPropertyOp32
 70
     1
102
RTVSPropertyOp33
 70
     1
102
RTVSPropertyOp34
 70
     1
102
RTVSPropertyOp35
 70
     1
102
RTVSPropertyOp36
 70
     1
102
RTVSPropertyOp37
 70
     1
102
RTVSPropertyOp38
 70
     1
102
RTVSPropertyOp39
 70
     1
102
RTVSPropertyOp40
 70
     1
102
RTVSPropertyOp41
 70
     1
102
RTVSPropertyOp42
 70
     1
102
RTVSPropertyOp43
 70
     1
102
RTVSPropertyOp44
 70
     1
102
RTVSPropertyOp45
 70
     1
102
RTVSPropertyOp46
 70
     1
102
RTVSPropertyOp47
 70
     1
102
RTVSPropertyOp48
 70
     1
102
RTVSPropertyOp49
 70
     1
102
RTVSPropertyOp50
 70
     1
102
RTVSPropertyOp51
 70
     0
102
RTVSPropertyOp52
 70
     0
102
RTVSPropertyOp53
 70
     1
102
RTVSPropertyOp54
 70
     1
102
RTVSPropertyOp55
 70
     1
102
RTVSPropertyOp56
 70
     1
102
RTVSPropertyOp57
 70
     1
102
RTVSPost2010Prop28
280
     0
102
RTVSPost2010PropOp28
 70
     1
102
RTVSPost2010Prop29
280
     1
102
RTVSPost2010PropOp29
 70
     1
102
RTVSPost2010Prop30
280
     1
102
RTVSPost2010PropOp30
 70
     1
102
RTVSPost2010Prop31
280
     0
102
RTVSPost2010PropOp31
 70
     1
102
RTVSPost2010Prop32
280
     0
102
RTVSPost2010PropOp32
 70
     1
102
RTVSPost2010Prop33
280
     0
102
RTVSPost2010PropOp33
 70
     1
102
RTVSPost2010Prop34
280
     0
102
RTVSPost2010PropOp34
 70
     1
102
RTVSPost2010Prop35
280
     0
102
RTVSPost2010PropOp35
 70
     1
102
RTVSPost2010Prop36
280
     0
102
RTVSPost2010PropOp36
 70
     1
102
RTVSPost2010Prop37
 90
       50
102
RTVSPost2010PropOp37
 70
     1
102
RTVSPost2010Prop38
140
0.0
102
RTVSPost2010PropOp38
 70
     1
102
RTVSPost2010Prop39
140
1.0
102
RTVSPost2010PropOp39
 70
     1
102
RTVSPost2010Prop40
 90
        0
102
RTVSPost2010PropOp40
 70
     1
102
RTVSPost2010Prop41ColorIndex
 90
       18
102
RTVSPost2010Prop41ColorRGB
 90
        0
102
RTVSPost2010PropOp41
 70
     1
102
RTVSPost2010Prop42
 90
       50
102
RTVSPost2010PropOp42
 70
     1
102
RTVSPost2010Prop43
 90
        3
102
RTVSPost2010PropOp43
 70
     1
102
RTVSPost2010Prop44ColorIndex
 90
        5
102
RTVSPost2010Prop44ColorRGB
 90
      255
102
RTVSPost2010PropOp44
 70
     1
102
RTVSPost2010Prop45
280
     0
102
RTVSPost2010PropOp45
 70
     1
102
RTVSPost2010Prop46
 90
       50
102
RTVSPost2010PropOp46
 70
     1
102
RTVSPost2010Prop47
 90
       50
102
RTVSPost2010PropOp47
 70
     1
102
RTVSPost2010Prop48
 90
       50
102
RTVSPost2010PropOp48
 70
     1
102
RTVSPost2010Prop49
280
     0
102
RTVSPost2010PropOp49
 70
     1
102
RTVSPost2010Prop50
 90
       50
102
RTVSPost2010PropOp50
 70
     1
102
RTVSPost2010Prop51ColorIndex
 90
      256
102
RTVSPost2010Prop51ColorRGB
 90
-16777216
102
RTVSPost2010PropOp51
 70
     0
102
RTVSPost2010Prop52
140
1.0
102
RTVSPost2010PropOp52
 70
     0
102
RTVSPost2010Prop53
 90
        2
102
RTVSPost2010PropOp53
 70
     1
102
RTVSPost2010Prop54
  1
strokes_ogs.tif
102
RTVSPost2010PropOp54
 70
     1
102
RTVSPost2010Prop55
280
     0
102
RTVSPost2010PropOp55
 70
     1
102
RTVSPost2010Prop56
140
1.0
102
RTVSPost2010PropOp56
 70
     1
102
RTVSPost2010Prop57
140
1.0
102
RTVSPost2010PropOp57
 70
     1
  0
XRECORD
  5
2BE
102
{ACAD_REACTORS
330
2BD
102
}
330
2BD
100
AcDbXrecord
280
     1
102
RTVSPropertyOp0
 70
     0
102
RTVSPropertyOp1
 70
     0
102
RTVSPropertyOp2
 70
     0
102
RTVSPropertyOp3
 70
     0
102
RTVSPropertyOp4
 70
     0
102
RTVSPropertyOp5
 70
     0
102
RTVSPropertyOp6
 70
     0
102
RTVSPropertyOp7
 70
     0
102
RTVSPropertyOp8
 70
     0
102
RTVSPropertyOp9
 70
     0
102
RTVSPropertyOp10
 70
     0
102
RTVSPropertyOp11
 70
     0
102
RTVSPropertyOp12
 70
     0
102
RTVSPropertyOp13
 70
     0
102
RTVSPropertyOp14
 70
     2
102
RTVSPropertyOp15
 70
     0
102
RTVSPropertyOp16
 70
     0
102
RTVSPropertyOp17
 70
     0
102
RTVSPropertyOp18
 70
     0
102
RTVSPropertyOp19
 70
     0
102
RTVSPropertyOp20
 70
     0
102
RTVSPropertyOp21
 70
     0
102
RTVSPropertyOp22
 70
     0
102
RTVSPropertyOp23
 70
     0
102
RTVSPropertyOp24
 70
     0
102
RTVSPropertyOp25
 70
     0
102
RTVSPropertyOp26
 70
     0
102
RTVSPropertyOp27
 70
     0
102
RTVSPropertyOp28
 70
     0
102
RTVSPropertyOp29
 70
     0
102
RTVSPropertyOp30
 70
     0
102
RTVSPropertyOp31
 70
     0
102
RTVSPropertyOp32
 70
     0
102
RTVSPropertyOp33
 70
     0
102
RTVSPropertyOp34
 70
     0
102
RTVSPropertyOp35
 70
     0
102
RTVSPropertyOp36
 70
     0
102
RTVSPropertyOp37
 70
     0
102
RTVSPropertyOp38
 70
     0
102
RTVSPropertyOp39
 70
     0
102
RTVSPropertyOp40
 70
     0
102
RTVSPropertyOp41
 70
     0
102
RTVSPropertyOp42
 70
     0
102
RTVSPropertyOp43
 70
     0
102
RTVSPropertyOp44
 70
     0
102
RTVSPropertyOp45
 70
     0
102
RTVSPropertyOp46
 70
     0
102
RTVSPropertyOp47
 70
     0
102
RTVSPropertyOp48
 70
     0
102
RTVSPropertyOp49
 70
     0
102
RTVSPropertyOp50
 70
     0
102
RTVSPropertyOp51
 70
     0
102
RTVSPropertyOp52
 70
     0
102
RTVSPropertyOp53
 70
     0
102
RTVSPropertyOp54
 70
     0
102
RTVSPropertyOp55
 70
     0
102
RTVSPropertyOp56
 70
     0
102
RTVSPropertyOp57
 70
     0
102
RTVSPost2010Prop28
280
     0
102
RTVSPost2010PropOp28
 70
     0
102
RTVSPost2010Prop29
280
     1
102
RTVSPost2010PropOp29
 70
     0
102
RTVSPost2010Prop30
280
     1
102
RTVSPost2010PropOp30
 70
     0
102
RTVSPost2010Prop31
280
     0
102
RTVSPost2010PropOp31
 70
     0
102
RTVSPost2010Prop32
280
     0
102
RTVSPost2010PropOp32
 70
     0
102
RTVSPost2010Prop33
280
     0
102
RTVSPost2010PropOp33
 70
     0
102
RTVSPost2010Prop34
280
     0
102
RTVSPost2010PropOp34
 70
     0
102
RTVSPost2010Prop35
280
     0
102
RTVSPost2010PropOp35
 70
     0
102
RTVSPost2010Prop36
280
     0
102
RTVSPost2010PropOp36
 70
     0
102
RTVSPost2010Prop37
 90
       50
102
RTVSPost2010PropOp37
 70
     0
102
RTVSPost2010Prop38
140
0.0
102
RTVSPost2010PropOp38
 70
     0
102
RTVSPost2010Prop39
140
1.0
102
RTVSPost2010PropOp39
 70
     0
102
RTVSPost2010Prop40
 90
        0
102
RTVSPost2010PropOp40
 70
     0
102
RTVSPost2010Prop41ColorIndex
 90
       18
102
RTVSPost2010Prop41ColorRGB
 90
        0
102
RTVSPost2010PropOp41
 70
     0
102
RTVSPost2010Prop42
 90
       50
102
RTVSPost2010PropOp42
 70
     0
102
RTVSPost2010Prop43
 90
        3
102
RTVSPost2010PropOp43
 70
     0
102
RTVSPost2010Prop44ColorIndex
 90
        5
102
RTVSPost2010Prop44ColorRGB
 90
      255
102
RTVSPost2010PropOp44
 70
     0
102
RTVSPost2010Prop45
280
     0
102
RTVSPost2010PropOp45
 70
     0
102
RTVSPost2010Prop46
 90
       50
102
RTVSPost2010PropOp46
 70
     0
102
RTVSPost2010Prop47
 90
       50
102
RTVSPost2010PropOp47
 70
     0
102
RTVSPost2010Prop48
 90
       50
102
RTVSPost2010PropOp48
 70
     0
102
RTVSPost2010Prop49
280
     0
102
RTVSPost2010PropOp49
 70
     0
102
RTVSPost2010Prop50
 90
       50
102
RTVSPost2010PropOp50
 70
     0
102
RTVSPost2010Prop51ColorIndex
 90
      256
102
RTVSPost2010Prop51ColorRGB
 90
-16777216
102
RTVSPost2010PropOp51
 70
     0
102
RTVSPost2010Prop52
140
1.0
102
RTVSPost2010PropOp52
 70
     0
102
RTVSPost2010Prop53
 90
        2
102
RTVSPost2010PropOp53
 70
     0
102
RTVSPost2010Prop54
  1
strokes_ogs.tif
102
RTVSPost2010PropOp54
 70
     0
102
RTVSPost2010Prop55
280
     0
102
RTVSPost2010PropOp55
 70
     0
102
RTVSPost2010Prop56
140
1.0
102
RTVSPost2010PropOp56
 70
     0
102
RTVSPost2010Prop57
140
1.0
102
RTVSPost2010PropOp57
 70
     0
  0
XRECORD
  5
2B8
102
{ACAD_REACTORS
330
2B7
102
}
330
2B7
100
AcDbXrecord
280
     1
102
RTVSPropertyOp0
 70
     1
102
RTVSPropertyOp1
 70
     1
102
RTVSPropertyOp2
 70
     1
102
RTVSPropertyOp3
 70
     1
102
RTVSPropertyOp4
 70
     1
102
RTVSPropertyOp5
 70
     1
102
RTVSPropertyOp6
 70
     1
102
RTVSPropertyOp7
 70
     1
102
RTVSPropertyOp8
 70
     1
102
RTVSPropertyOp9
 70
     1
102
RTVSPropertyOp10
 70
     1
102
RTVSPropertyOp11
 70
     1
102
RTVSPropertyOp12
 70
     1
102
RTVSPropertyOp13
 70
     1
102
RTVSPropertyOp14
 70
     1
102
RTVSPropertyOp15
 70
     1
102
RTVSPropertyOp16
 70
     1
102
RTVSPropertyOp17
 70
     1
102
RTVSPropertyOp18
 70
     1
102
RTVSPropertyOp19
 70
     1
102
RTVSPropertyOp20
 70
     1
102
RTVSPropertyOp21
 70
     1
102
RTVSPropertyOp22
 70
     1
102
RTVSPropertyOp23
 70
     1
102
RTVSPropertyOp24
 70
     1
102
RTVSPropertyOp25
 70
     1
102
RTVSPropertyOp26
 70
     1
102
RTVSPropertyOp27
 70
     1
102
RTVSPropertyOp28
 70
     1
102
RTVSPropertyOp29
 70
     1
102
RTVSPropertyOp30
 70
     1
102
RTVSPropertyOp31
 70
     1
102
RTVSPropertyOp32
 70
     1
102
RTVSPropertyOp33
 70
     1
102
RTVSPropertyOp34
 70
     1
102
RTVSPropertyOp35
 70
     1
102
RTVSPropertyOp36
 70
     1
102
RTVSPropertyOp37
 70
     1
102
RTVSPropertyOp38
 70
     1
102
RTVSPropertyOp39
 70
     1
102
RTVSPropertyOp40
 70
     1
102
RTVSPropertyOp41
 70
     1
102
RTVSPropertyOp42
 70
     1
102
RTVSPropertyOp43
 70
     1
102
RTVSPropertyOp44
 70
     1
102
RTVSPropertyOp45
 70
     1
102
RTVSPropertyOp46
 70
     1
102
RTVSPropertyOp47
 70
     1
102
RTVSPropertyOp48
 70
     1
102
RTVSPropertyOp49
 70
     1
102
RTVSPropertyOp50
 70
     1
102
RTVSPropertyOp51
 70
     0
102
RTVSPropertyOp52
 70
     0
102
RTVSPropertyOp53
 70
     1
102
RTVSPropertyOp54
 70
     1
102
RTVSPropertyOp55
 70
     1
102
RTVSPropertyOp56
 70
     1
102
RTVSPropertyOp57
 70
     1
102
RTVSPost2010Prop28
280
     0
102
RTVSPost2010PropOp28
 70
     1
102
RTVSPost2010Prop29
280
     1
102
RTVSPost2010PropOp29
 70
     1
102
RTVSPost2010Prop30
280
     1
102
RTVSPost2010PropOp30
 70
     1
102
RTVSPost2010Prop31
280
     0
102
RTVSPost2010PropOp31
 70
     1
102
RTVSPost2010Prop32
280
     0
102
RTVSPost2010PropOp32
 70
     1
102
RTVSPost2010Prop33
280
     0
102
RTVSPost2010PropOp33
 70
     1
102
RTVSPost2010Prop34
280
     0
102
RTVSPost2010PropOp34
 70
     1
102
RTVSPost2010Prop35
280
     0
102
RTVSPost2010PropOp35
 70
     1
102
RTVSPost2010Prop36
280
     0
102
RTVSPost2010PropOp36
 70
     1
102
RTVSPost2010Prop37
 90
       50
102
RTVSPost2010PropOp37
 70
     1
102
RTVSPost2010Prop38
140
0.0
102
RTVSPost2010PropOp38
 70
     1
102
RTVSPost2010Prop39
140
1.0
102
RTVSPost2010PropOp39
 70
     1
102
RTVSPost2010Prop40
 90
        0
102
RTVSPost2010PropOp40
 70
     1
102
RTVSPost2010Prop41ColorIndex
 90
       18
102
RTVSPost2010Prop41ColorRGB
 90
        0
102
RTVSPost2010PropOp41
 70
     1
102
RTVSPost2010Prop42
 90
       50
102
RTVSPost2010PropOp42
 70
     1
102
RTVSPost2010Prop43
 90
        3
102
RTVSPost2010PropOp43
 70
     1
102
RTVSPost2010Prop44ColorIndex
 90
        5
102
RTVSPost2010Prop44ColorRGB
 90
      255
102
RTVSPost2010PropOp44
 70
     1
102
RTVSPost2010Prop45
280
     0
102
RTVSPost2010PropOp45
 70
     1
102
RTVSPost2010Prop46
 90
       50
102
RTVSPost2010PropOp46
 70
     1
102
RTVSPost2010Prop47
 90
       50
102
RTVSPost2010PropOp47
 70
     1
102
RTVSPost2010Prop48
 90
       50
102
RTVSPost2010PropOp48
 70
     1
102
RTVSPost2010Prop49
280
     0
102
RTVSPost2010PropOp49
 70
     1
102
RTVSPost2010Prop50
 90
       50
102
RTVSPost2010PropOp50
 70
     1
102
RTVSPost2010Prop51ColorIndex
 90
      256
102
RTVSPost2010Prop51ColorRGB
 90
-16777216
102
RTVSPost2010PropOp51
 70
     0
102
RTVSPost2010Prop52
140
1.0
102
RTVSPost2010PropOp52
 70
     0
102
RTVSPost2010Prop53
 90
        2
102
RTVSPost2010PropOp53
 70
     1
102
RTVSPost2010Prop54
  1
strokes_ogs.tif
102
RTVSPost2010PropOp54
 70
     1
102
RTVSPost2010Prop55
280
     0
102
RTVSPost2010PropOp55
 70
     1
102
RTVSPost2010Prop56
140
1.0
102
RTVSPost2010PropOp56
 70
     1
102
RTVSPost2010Prop57
140
1.0
102
RTVSPost2010PropOp57
 70
     1
  0
XRECORD
  5
2C0
102
{ACAD_REACTORS
330
2BF
102
}
330
2BF
100
AcDbXrecord
280
     1
102
RTVSPropertyOp0
 70
     0
102
RTVSPropertyOp1
 70
     0
102
RTVSPropertyOp2
 70
     0
102
RTVSPropertyOp3
 70
     0
102
RTVSPropertyOp4
 70
     0
102
RTVSPropertyOp5
 70
     0
102
RTVSPropertyOp6
 70
     0
102
RTVSPropertyOp7
 70
     0
102
RTVSPropertyOp8
 70
     0
102
RTVSPropertyOp9
 70
     0
102
RTVSPropertyOp10
 70
     0
102
RTVSPropertyOp11
 70
     0
102
RTVSPropertyOp12
 70
     0
102
RTVSPropertyOp13
 70
     0
102
RTVSPropertyOp14
 70
     2
102
RTVSPropertyOp15
 70
     0
102
RTVSPropertyOp16
 70
     0
102
RTVSPropertyOp17
 70
     0
102
RTVSPropertyOp18
 70
     0
102
RTVSPropertyOp19
 70
     0
102
RTVSPropertyOp20
 70
     0
102
RTVSPropertyOp21
 70
     0
102
RTVSPropertyOp22
 70
     0
102
RTVSPropertyOp23
 70
     0
102
RTVSPropertyOp24
 70
     0
102
RTVSPropertyOp25
 70
     0
102
RTVSPropertyOp26
 70
     0
102
RTVSPropertyOp27
 70
     0
102
RTVSPropertyOp28
 70
     0
102
RTVSPropertyOp29
 70
     0
102
RTVSPropertyOp30
 70
     0
102
RTVSPropertyOp31
 70
     0
102
RTVSPropertyOp32
 70
     0
102
RTVSPropertyOp33
 70
     0
102
RTVSPropertyOp34
 70
     0
102
RTVSPropertyOp35
 70
     0
102
RTVSPropertyOp36
 70
     0
102
RTVSPropertyOp37
 70
     0
102
RTVSPropertyOp38
 70
     0
102
RTVSPropertyOp39
 70
     0
102
RTVSPropertyOp40
 70
     0
102
RTVSPropertyOp41
 70
     0
102
RTVSPropertyOp42
 70
     0
102
RTVSPropertyOp43
 70
     0
102
RTVSPropertyOp44
 70
     0
102
RTVSPropertyOp45
 70
     0
102
RTVSPropertyOp46
 70
     0
102
RTVSPropertyOp47
 70
     0
102
RTVSPropertyOp48
 70
     0
102
RTVSPropertyOp49
 70
     0
102
RTVSPropertyOp50
 70
     0
102
RTVSPropertyOp51
 70
     0
102
RTVSPropertyOp52
 70
     0
102
RTVSPropertyOp53
 70
     0
102
RTVSPropertyOp54
 70
     0
102
RTVSPropertyOp55
 70
     0
102
RTVSPropertyOp56
 70
     0
102
RTVSPropertyOp57
 70
     0
102
RTVSPost2010Prop28
280
     0
102
RTVSPost2010PropOp28
 70
     0
102
RTVSPost2010Prop29
280
     1
102
RTVSPost2010PropOp29
 70
     0
102
RTVSPost2010Prop30
280
     1
102
RTVSPost2010PropOp30
 70
     0
102
RTVSPost2010Prop31
280
     0
102
RTVSPost2010PropOp31
 70
     0
102
RTVSPost2010Prop32
280
     0
102
RTVSPost2010PropOp32
 70
     0
102
RTVSPost2010Prop33
280
     0
102
RTVSPost2010PropOp33
 70
     0
102
RTVSPost2010Prop34
280
     0
102
RTVSPost2010PropOp34
 70
     0
102
RTVSPost2010Prop35
280
     0
102
RTVSPost2010PropOp35
 70
     0
102
RTVSPost2010Prop36
280
     0
102
RTVSPost2010PropOp36
 70
     0
102
RTVSPost2010Prop37
 90
       50
102
RTVSPost2010PropOp37
 70
     0
102
RTVSPost2010Prop38
140
0.0
102
RTVSPost2010PropOp38
 70
     0
102
RTVSPost2010Prop39
140
1.0
102
RTVSPost2010PropOp39
 70
     0
102
RTVSPost2010Prop40
 90
        0
102
RTVSPost2010PropOp40
 70
     0
102
RTVSPost2010Prop41ColorIndex
 90
       18
102
RTVSPost2010Prop41ColorRGB
 90
        0
102
RTVSPost2010PropOp41
 70
     0
102
RTVSPost2010Prop42
 90
       50
102
RTVSPost2010PropOp42
 70
     0
102
RTVSPost2010Prop43
 90
        3
102
RTVSPost2010PropOp43
 70
     0
102
RTVSPost2010Prop44ColorIndex
 90
        5
102
RTVSPost2010Prop44ColorRGB
 90
      255
102
RTVSPost2010PropOp44
 70
     0
102
RTVSPost2010Prop45
280
     0
102
RTVSPost2010PropOp45
 70
     0
102
RTVSPost2010Prop46
 90
       50
102
RTVSPost2010PropOp46
 70
     0
102
RTVSPost2010Prop47
 90
       50
102
RTVSPost2010PropOp47
 70
     0
102
RTVSPost2010Prop48
 90
       50
102
RTVSPost2010PropOp48
 70
     0
102
RTVSPost2010Prop49
280
     0
102
RTVSPost2010PropOp49
 70
     0
102
RTVSPost2010Prop50
 90
       50
102
RTVSPost2010PropOp50
 70
     0
102
RTVSPost2010Prop51ColorIndex
 90
      256
102
RTVSPost2010Prop51ColorRGB
 90
-16777216
102
RTVSPost2010PropOp51
 70
     0
102
RTVSPost2010Prop52
140
1.0
102
RTVSPost2010PropOp52
 70
     0
102
RTVSPost2010Prop53
 90
        2
102
RTVSPost2010PropOp53
 70
     0
102
RTVSPost2010Prop54
  1
strokes_ogs.tif
102
RTVSPost2010PropOp54
 70
     0
102
RTVSPost2010Prop55
280
     0
102
RTVSPost2010PropOp55
 70
     0
102
RTVSPost2010Prop56
140
1.0
102
RTVSPost2010PropOp56
 70
     0
102
RTVSPost2010Prop57
140
1.0
102
RTVSPost2010PropOp57
 70
     0
  0
XRECORD
  5
2AE
102
{ACAD_REACTORS
330
2AD
102
}
330
2AD
100
AcDbXrecord
280
     1
102
RTVSPropertyOp0
 70
     1
102
RTVSPropertyOp1
 70
     1
102
RTVSPropertyOp2
 70
     1
102
RTVSPropertyOp3
 70
     1
102
RTVSPropertyOp4
 70
     1
102
RTVSPropertyOp5
 70
     1
102
RTVSPropertyOp6
 70
     1
102
RTVSPropertyOp7
 70
     1
102
RTVSPropertyOp8
 70
     1
102
RTVSPropertyOp9
 70
     1
102
RTVSPropertyOp10
 70
     1
102
RTVSPropertyOp11
 70
     1
102
RTVSPropertyOp12
 70
     1
102
RTVSPropertyOp13
 70
     1
102
RTVSPropertyOp14
 70
     1
102
RTVSPropertyOp15
 70
     1
102
RTVSPropertyOp16
 70
     1
102
RTVSPropertyOp17
 70
     1
102
RTVSPropertyOp18
 70
     1
102
RTVSPropertyOp19
 70
     1
102
RTVSPropertyOp20
 70
     1
102
RTVSPropertyOp21
 70
     1
102
RTVSPropertyOp22
 70
     1
102
RTVSPropertyOp23
 70
     1
102
RTVSPropertyOp24
 70
     1
102
RTVSPropertyOp25
 70
     1
102
RTVSPropertyOp26
 70
     1
102
RTVSPropertyOp27
 70
     1
102
RTVSPropertyOp28
 70
     1
102
RTVSPropertyOp29
 70
     1
102
RTVSPropertyOp30
 70
     1
102
RTVSPropertyOp31
 70
     1
102
RTVSPropertyOp32
 70
     1
102
RTVSPropertyOp33
 70
     1
102
RTVSPropertyOp34
 70
     1
102
RTVSPropertyOp35
 70
     1
102
RTVSPropertyOp36
 70
     1
102
RTVSPropertyOp37
 70
     1
102
RTVSPropertyOp38
 70
     1
102
RTVSPropertyOp39
 70
     1
102
RTVSPropertyOp40
 70
     1
102
RTVSPropertyOp41
 70
     1
102
RTVSPropertyOp42
 70
     1
102
RTVSPropertyOp43
 70
     1
102
RTVSPropertyOp44
 70
     1
102
RTVSPropertyOp45
 70
     1
102
RTVSPropertyOp46
 70
     1
102
RTVSPropertyOp47
 70
     1
102
RTVSPropertyOp48
 70
     1
102
RTVSPropertyOp49
 70
     1
102
RTVSPropertyOp50
 70
     1
102
RTVSPropertyOp51
 70
     0
102
RTVSPropertyOp52
 70
     0
102
RTVSPropertyOp53
 70
     1
102
RTVSPropertyOp54
 70
     1
102
RTVSPropertyOp55
 70
     1
102
RTVSPropertyOp56
 70
     1
102
RTVSPropertyOp57
 70
     1
102
RTVSPost2010Prop28
280
     0
102
RTVSPost2010PropOp28
 70
     1
102
RTVSPost2010Prop29
280
     1
102
RTVSPost2010PropOp29
 70
     1
102
RTVSPost2010Prop30
280
     1
102
RTVSPost2010PropOp30
 70
     1
102
RTVSPost2010Prop31
280
     0
102
RTVSPost2010PropOp31
 70
     1
102
RTVSPost2010Prop32
280
     0
102
RTVSPost2010PropOp32
 70
     1
102
RTVSPost2010Prop33
280
     0
102
RTVSPost2010PropOp33
 70
     1
102
RTVSPost2010Prop34
280
     0
102
RTVSPost2010PropOp34
 70
     1
102
RTVSPost2010Prop35
280
     0
102
RTVSPost2010PropOp35
 70
     1
102
RTVSPost2010Prop36
280
     0
102
RTVSPost2010PropOp36
 70
     1
102
RTVSPost2010Prop37
 90
       50
102
RTVSPost2010PropOp37
 70
     1
102
RTVSPost2010Prop38
140
0.0
102
RTVSPost2010PropOp38
 70
     1
102
RTVSPost2010Prop39
140
1.0
102
RTVSPost2010PropOp39
 70
     1
102
RTVSPost2010Prop40
 90
        0
102
RTVSPost2010PropOp40
 70
     1
102
RTVSPost2010Prop41ColorIndex
 90
       18
102
RTVSPost2010Prop41ColorRGB
 90
        0
102
RTVSPost2010PropOp41
 70
     1
102
RTVSPost2010Prop42
 90
       50
102
RTVSPost2010PropOp42
 70
     1
102
RTVSPost2010Prop43
 90
        3
102
RTVSPost2010PropOp43
 70
     1
102
RTVSPost2010Prop44ColorIndex
 90
        5
102
RTVSPost2010Prop44ColorRGB
 90
      255
102
RTVSPost2010PropOp44
 70
     1
102
RTVSPost2010Prop45
280
     0
102
RTVSPost2010PropOp45
 70
     1
102
RTVSPost2010Prop46
 90
       50
102
RTVSPost2010PropOp46
 70
     1
102
RTVSPost2010Prop47
 90
       50
102
RTVSPost2010PropOp47
 70
     1
102
RTVSPost2010Prop48
 90
       50
102
RTVSPost2010PropOp48
 70
     1
102
RTVSPost2010Prop49
280
     0
102
RTVSPost2010PropOp49
 70
     1
102
RTVSPost2010Prop50
 90
       50
102
RTVSPost2010PropOp50
 70
     1
102
RTVSPost2010Prop51ColorIndex
 90
      256
102
RTVSPost2010Prop51ColorRGB
 90
-16777216
102
RTVSPost2010PropOp51
 70
     0
102
RTVSPost2010Prop52
140
1.0
102
RTVSPost2010PropOp52
 70
     0
102
RTVSPost2010Prop53
 90
        2
102
RTVSPost2010PropOp53
 70
     1
102
RTVSPost2010Prop54
  1
strokes_ogs.tif
102
RTVSPost2010PropOp54
 70
     1
102
RTVSPost2010Prop55
280
     0
102
RTVSPost2010PropOp55
 70
     1
102
RTVSPost2010Prop56
140
1.0
102
RTVSPost2010PropOp56
 70
     1
102
RTVSPost2010Prop57
140
1.0
102
RTVSPost2010PropOp57
 70
     1
  0
XRECORD
  5
2CC
102
{ACAD_REACTORS
330
2CB
102
}
330
2CB
100
AcDbXrecord
280
     1
102
RTVSPropertyOp0
 70
     1
102
RTVSPropertyOp1
 70
     1
102
RTVSPropertyOp2
 70
     1
102
RTVSPropertyOp3
 70
     1
102
RTVSPropertyOp4
 70
     1
102
RTVSPropertyOp5
 70
     1
102
RTVSPropertyOp6
 70
     1
102
RTVSPropertyOp7
 70
     1
102
RTVSPropertyOp8
 70
     1
102
RTVSPropertyOp9
 70
     1
102
RTVSPropertyOp10
 70
     1
102
RTVSPropertyOp11
 70
     1
102
RTVSPropertyOp12
 70
     1
102
RTVSPropertyOp13
 70
     1
102
RTVSPropertyOp14
 70
     1
102
RTVSPropertyOp15
 70
     1
102
RTVSPropertyOp16
 70
     1
102
RTVSPropertyOp17
 70
     1
102
RTVSPropertyOp18
 70
     1
102
RTVSPropertyOp19
 70
     1
102
RTVSPropertyOp20
 70
     1
102
RTVSPropertyOp21
 70
     1
102
RTVSPropertyOp22
 70
     1
102
RTVSPropertyOp23
 70
     1
102
RTVSPropertyOp24
 70
     1
102
RTVSPropertyOp25
 70
     1
102
RTVSPropertyOp26
 70
     1
102
RTVSPropertyOp27
 70
     1
102
RTVSPropertyOp28
 70
     1
102
RTVSPropertyOp29
 70
     1
102
RTVSPropertyOp30
 70
     1
102
RTVSPropertyOp31
 70
     1
102
RTVSPropertyOp32
 70
     1
102
RTVSPropertyOp33
 70
     1
102
RTVSPropertyOp34
 70
     1
102
RTVSPropertyOp35
 70
     1
102
RTVSPropertyOp36
 70
     1
102
RTVSPropertyOp37
 70
     1
102
RTVSPropertyOp38
 70
     1
102
RTVSPropertyOp39
 70
     1
102
RTVSPropertyOp40
 70
     1
102
RTVSPropertyOp41
 70
     1
102
RTVSPropertyOp42
 70
     1
102
RTVSPropertyOp43
 70
     1
102
RTVSPropertyOp44
 70
     1
102
RTVSPropertyOp45
 70
     1
102
RTVSPropertyOp46
 70
     1
102
RTVSPropertyOp47
 70
     1
102
RTVSPropertyOp48
 70
     1
102
RTVSPropertyOp49
 70
     1
102
RTVSPropertyOp50
 70
     1
102
RTVSPropertyOp51
 70
     0
102
RTVSPropertyOp52
 70
     0
102
RTVSPropertyOp53
 70
     1
102
RTVSPropertyOp54
 70
     1
102
RTVSPropertyOp55
 70
     1
102
RTVSPropertyOp56
 70
     1
102
RTVSPropertyOp57
 70
     1
102
RTVSPost2010Prop28
280
     0
102
RTVSPost2010PropOp28
 70
     1
102
RTVSPost2010Prop29
280
     1
102
RTVSPost2010PropOp29
 70
     1
102
RTVSPost2010Prop30
280
     1
102
RTVSPost2010PropOp30
 70
     1
102
RTVSPost2010Prop31
280
     0
102
RTVSPost2010PropOp31
 70
     1
102
RTVSPost2010Prop32
280
     0
102
RTVSPost2010PropOp32
 70
     1
102
RTVSPost2010Prop33
280
     0
102
RTVSPost2010PropOp33
 70
     1
102
RTVSPost2010Prop34
280
     0
102
RTVSPost2010PropOp34
 70
     1
102
RTVSPost2010Prop35
280
     0
102
RTVSPost2010PropOp35
 70
     1
102
RTVSPost2010Prop36
280
     0
102
RTVSPost2010PropOp36
 70
     1
102
RTVSPost2010Prop37
 90
       50
102
RTVSPost2010PropOp37
 70
     1
102
RTVSPost2010Prop38
140
0.0
102
RTVSPost2010PropOp38
 70
     1
102
RTVSPost2010Prop39
140
1.0
102
RTVSPost2010PropOp39
 70
     1
102
RTVSPost2010Prop40
 90
        0
102
RTVSPost2010PropOp40
 70
     1
102
RTVSPost2010Prop41ColorIndex
 90
       18
102
RTVSPost2010Prop41ColorRGB
 90
        0
102
RTVSPost2010PropOp41
 70
     1
102
RTVSPost2010Prop42
 90
       50
102
RTVSPost2010PropOp42
 70
     1
102
RTVSPost2010Prop43
 90
        3
102
RTVSPost2010PropOp43
 70
     1
102
RTVSPost2010Prop44ColorIndex
 90
        5
102
RTVSPost2010Prop44ColorRGB
 90
      255
102
RTVSPost2010PropOp44
 70
     1
102
RTVSPost2010Prop45
280
     0
102
RTVSPost2010PropOp45
 70
     1
102
RTVSPost2010Prop46
 90
       50
102
RTVSPost2010PropOp46
 70
     1
102
RTVSPost2010Prop47
 90
       50
102
RTVSPost2010PropOp47
 70
     1
102
RTVSPost2010Prop48
 90
       50
102
RTVSPost2010PropOp48
 70
     1
102
RTVSPost2010Prop49
280
     0
102
RTVSPost2010PropOp49
 70
     1
102
RTVSPost2010Prop50
 90
       50
102
RTVSPost2010PropOp50
 70
     1
102
RTVSPost2010Prop51ColorIndex
 90
      256
102
RTVSPost2010Prop51ColorRGB
 90
-16777216
102
RTVSPost2010PropOp51
 70
     0
102
RTVSPost2010Prop52
140
1.0
102
RTVSPost2010PropOp52
 70
     0
102
RTVSPost2010Prop53
 90
        2
102
RTVSPost2010PropOp53
 70
     1
102
RTVSPost2010Prop54
  1
strokes_ogs.tif
102
RTVSPost2010PropOp54
 70
     1
102
RTVSPost2010Prop55
280
     0
102
RTVSPost2010PropOp55
 70
     1
102
RTVSPost2010Prop56
140
1.0
102
RTVSPost2010PropOp56
 70
     1
102
RTVSPost2010Prop57
140
1.0
102
RTVSPost2010PropOp57
 70
     1
  0
XRECORD
  5
2CA
102
{ACAD_REACTORS
330
2C9
102
}
330
2C9
100
AcDbXrecord
280
     1
102
RTVSPropertyOp0
 70
     1
102
RTVSPropertyOp1
 70
     1
102
RTVSPropertyOp2
 70
     1
102
RTVSPropertyOp3
 70
     1
102
RTVSPropertyOp4
 70
     1
102
RTVSPropertyOp5
 70
     1
102
RTVSPropertyOp6
 70
     1
102
RTVSPropertyOp7
 70
     1
102
RTVSPropertyOp8
 70
     1
102
RTVSPropertyOp9
 70
     1
102
RTVSPropertyOp10
 70
     1
102
RTVSPropertyOp11
 70
     1
102
RTVSPropertyOp12
 70
     1
102
RTVSPropertyOp13
 70
     1
102
RTVSPropertyOp14
 70
     1
102
RTVSPropertyOp15
 70
     1
102
RTVSPropertyOp16
 70
     1
102
RTVSPropertyOp17
 70
     1
102
RTVSPropertyOp18
 70
     1
102
RTVSPropertyOp19
 70
     1
102
RTVSPropertyOp20
 70
     1
102
RTVSPropertyOp21
 70
     1
102
RTVSPropertyOp22
 70
     1
102
RTVSPropertyOp23
 70
     1
102
RTVSPropertyOp24
 70
     1
102
RTVSPropertyOp25
 70
     1
102
RTVSPropertyOp26
 70
     1
102
RTVSPropertyOp27
 70
     1
102
RTVSPropertyOp28
 70
     1
102
RTVSPropertyOp29
 70
     1
102
RTVSPropertyOp30
 70
     1
102
RTVSPropertyOp31
 70
     1
102
RTVSPropertyOp32
 70
     1
102
RTVSPropertyOp33
 70
     1
102
RTVSPropertyOp34
 70
     1
102
RTVSPropertyOp35
 70
     1
102
RTVSPropertyOp36
 70
     1
102
RTVSPropertyOp37
 70
     1
102
RTVSPropertyOp38
 70
     1
102
RTVSPropertyOp39
 70
     1
102
RTVSPropertyOp40
 70
     1
102
RTVSPropertyOp41
 70
     1
102
RTVSPropertyOp42
 70
     1
102
RTVSPropertyOp43
 70
     1
102
RTVSPropertyOp44
 70
     1
102
RTVSPropertyOp45
 70
     1
102
RTVSPropertyOp46
 70
     1
102
RTVSPropertyOp47
 70
     1
102
RTVSPropertyOp48
 70
     1
102
RTVSPropertyOp49
 70
     1
102
RTVSPropertyOp50
 70
     1
102
RTVSPropertyOp51
 70
     0
102
RTVSPropertyOp52
 70
     0
102
RTVSPropertyOp53
 70
     1
102
RTVSPropertyOp54
 70
     1
102
RTVSPropertyOp55
 70
     1
102
RTVSPropertyOp56
 70
     1
102
RTVSPropertyOp57
 70
     1
102
RTVSPost2010Prop28
280
     0
102
RTVSPost2010PropOp28
 70
     1
102
RTVSPost2010Prop29
280
     1
102
RTVSPost2010PropOp29
 70
     1
102
RTVSPost2010Prop30
280
     1
102
RTVSPost2010PropOp30
 70
     1
102
RTVSPost2010Prop31
280
     0
102
RTVSPost2010PropOp31
 70
     1
102
RTVSPost2010Prop32
280
     0
102
RTVSPost2010PropOp32
 70
     1
102
RTVSPost2010Prop33
280
     0
102
RTVSPost2010PropOp33
 70
     1
102
RTVSPost2010Prop34
280
     0
102
RTVSPost2010PropOp34
 70
     1
102
RTVSPost2010Prop35
280
     0
102
RTVSPost2010PropOp35
 70
     1
102
RTVSPost2010Prop36
280
     0
102
RTVSPost2010PropOp36
 70
     1
102
RTVSPost2010Prop37
 90
       50
102
RTVSPost2010PropOp37
 70
     1
102
RTVSPost2010Prop38
140
0.0
102
RTVSPost2010PropOp38
 70
     1
102
RTVSPost2010Prop39
140
1.0
102
RTVSPost2010PropOp39
 70
     1
102
RTVSPost2010Prop40
 90
        0
102
RTVSPost2010PropOp40
 70
     1
102
RTVSPost2010Prop41ColorIndex
 90
       18
102
RTVSPost2010Prop41ColorRGB
 90
        0
102
RTVSPost2010PropOp41
 70
     1
102
RTVSPost2010Prop42
 90
       50
102
RTVSPost2010PropOp42
 70
     1
102
RTVSPost2010Prop43
 90
        3
102
RTVSPost2010PropOp43
 70
     1
102
RTVSPost2010Prop44ColorIndex
 90
        5
102
RTVSPost2010Prop44ColorRGB
 90
      255
102
RTVSPost2010PropOp44
 70
     1
102
RTVSPost2010Prop45
280
     0
102
RTVSPost2010PropOp45
 70
     1
102
RTVSPost2010Prop46
 90
       50
102
RTVSPost2010PropOp46
 70
     1
102
RTVSPost2010Prop47
 90
       50
102
RTVSPost2010PropOp47
 70
     1
102
RTVSPost2010Prop48
 90
       50
102
RTVSPost2010PropOp48
 70
     1
102
RTVSPost2010Prop49
280
     0
102
RTVSPost2010PropOp49
 70
     1
102
RTVSPost2010Prop50
 90
       50
102
RTVSPost2010PropOp50
 70
     1
102
RTVSPost2010Prop51ColorIndex
 90
      256
102
RTVSPost2010Prop51ColorRGB
 90
-16777216
102
RTVSPost2010PropOp51
 70
     0
102
RTVSPost2010Prop52
140
1.0
102
RTVSPost2010PropOp52
 70
     0
102
RTVSPost2010Prop53
 90
        2
102
RTVSPost2010PropOp53
 70
     1
102
RTVSPost2010Prop54
  1
strokes_ogs.tif
102
RTVSPost2010PropOp54
 70
     1
102
RTVSPost2010Prop55
280
     0
102
RTVSPost2010PropOp55
 70
     1
102
RTVSPost2010Prop56
140
1.0
102
RTVSPost2010PropOp56
 70
     1
102
RTVSPost2010Prop57
140
1.0
102
RTVSPost2010PropOp57
 70
     1
  0
XRECORD
  5
2C4
102
{ACAD_REACTORS
330
2C3
102
}
330
2C3
100
AcDbXrecord
280
     1
102
RTVSPropertyOp0
 70
     1
102
RTVSPropertyOp1
 70
     1
102
RTVSPropertyOp2
 70
     1
102
RTVSPropertyOp3
 70
     1
102
RTVSPropertyOp4
 70
     1
102
RTVSPropertyOp5
 70
     1
102
RTVSPropertyOp6
 70
     1
102
RTVSPropertyOp7
 70
     1
102
RTVSPropertyOp8
 70
     1
102
RTVSPropertyOp9
 70
     1
102
RTVSPropertyOp10
 70
     1
102
RTVSPropertyOp11
 70
     1
102
RTVSPropertyOp12
 70
     1
102
RTVSPropertyOp13
 70
     1
102
RTVSPropertyOp14
 70
     1
102
RTVSPropertyOp15
 70
     1
102
RTVSPropertyOp16
 70
     1
102
RTVSPropertyOp17
 70
     1
102
RTVSPropertyOp18
 70
     1
102
RTVSPropertyOp19
 70
     1
102
RTVSPropertyOp20
 70
     1
102
RTVSPropertyOp21
 70
     1
102
RTVSPropertyOp22
 70
     1
102
RTVSPropertyOp23
 70
     1
102
RTVSPropertyOp24
 70
     1
102
RTVSPropertyOp25
 70
     1
102
RTVSPropertyOp26
 70
     1
102
RTVSPropertyOp27
 70
     1
102
RTVSPropertyOp28
 70
     1
102
RTVSPropertyOp29
 70
     1
102
RTVSPropertyOp30
 70
     1
102
RTVSPropertyOp31
 70
     1
102
RTVSPropertyOp32
 70
     1
102
RTVSPropertyOp33
 70
     1
102
RTVSPropertyOp34
 70
     1
102
RTVSPropertyOp35
 70
     1
102
RTVSPropertyOp36
 70
     1
102
RTVSPropertyOp37
 70
     1
102
RTVSPropertyOp38
 70
     1
102
RTVSPropertyOp39
 70
     1
102
RTVSPropertyOp40
 70
     1
102
RTVSPropertyOp41
 70
     1
102
RTVSPropertyOp42
 70
     1
102
RTVSPropertyOp43
 70
     1
102
RTVSPropertyOp44
 70
     1
102
RTVSPropertyOp45
 70
     1
102
RTVSPropertyOp46
 70
     1
102
RTVSPropertyOp47
 70
     1
102
RTVSPropertyOp48
 70
     1
102
RTVSPropertyOp49
 70
     1
102
RTVSPropertyOp50
 70
     1
102
RTVSPropertyOp51
 70
     0
102
RTVSPropertyOp52
 70
     0
102
RTVSPropertyOp53
 70
     1
102
RTVSPropertyOp54
 70
     1
102
RTVSPropertyOp55
 70
     1
102
RTVSPropertyOp56
 70
     1
102
RTVSPropertyOp57
 70
     1
102
RTVSPost2010Prop28
280
     0
102
RTVSPost2010PropOp28
 70
     1
102
RTVSPost2010Prop29
280
     1
102
RTVSPost2010PropOp29
 70
     1
102
RTVSPost2010Prop30
280
     1
102
RTVSPost2010PropOp30
 70
     1
102
RTVSPost2010Prop31
280
     0
102
RTVSPost2010PropOp31
 70
     1
102
RTVSPost2010Prop32
280
     0
102
RTVSPost2010PropOp32
 70
     1
102
RTVSPost2010Prop33
280
     0
102
RTVSPost2010PropOp33
 70
     1
102
RTVSPost2010Prop34
280
     0
102
RTVSPost2010PropOp34
 70
     1
102
RTVSPost2010Prop35
280
     0
102
RTVSPost2010PropOp35
 70
     1
102
RTVSPost2010Prop36
280
     0
102
RTVSPost2010PropOp36
 70
     1
102
RTVSPost2010Prop37
 90
       50
102
RTVSPost2010PropOp37
 70
     1
102
RTVSPost2010Prop38
140
0.0
102
RTVSPost2010PropOp38
 70
     1
102
RTVSPost2010Prop39
140
1.0
102
RTVSPost2010PropOp39
 70
     1
102
RTVSPost2010Prop40
 90
        0
102
RTVSPost2010PropOp40
 70
     1
102
RTVSPost2010Prop41ColorIndex
 90
       18
102
RTVSPost2010Prop41ColorRGB
 90
        0
102
RTVSPost2010PropOp41
 70
     1
102
RTVSPost2010Prop42
 90
       50
102
RTVSPost2010PropOp42
 70
     1
102
RTVSPost2010Prop43
 90
        3
102
RTVSPost2010PropOp43
 70
     1
102
RTVSPost2010Prop44ColorIndex
 90
        5
102
RTVSPost2010Prop44ColorRGB
 90
      255
102
RTVSPost2010PropOp44
 70
     1
102
RTVSPost2010Prop45
280
     0
102
RTVSPost2010PropOp45
 70
     1
102
RTVSPost2010Prop46
 90
       50
102
RTVSPost2010PropOp46
 70
     1
102
RTVSPost2010Prop47
 90
       50
102
RTVSPost2010PropOp47
 70
     1
102
RTVSPost2010Prop48
 90
       50
102
RTVSPost2010PropOp48
 70
     1
102
RTVSPost2010Prop49
280
     0
102
RTVSPost2010PropOp49
 70
     1
102
RTVSPost2010Prop50
 90
       50
102
RTVSPost2010PropOp50
 70
     1
102
RTVSPost2010Prop51ColorIndex
 90
      256
102
RTVSPost2010Prop51ColorRGB
 90
-16777216
102
RTVSPost2010PropOp51
 70
     0
102
RTVSPost2010Prop52
140
1.0
102
RTVSPost2010PropOp52
 70
     0
102
RTVSPost2010Prop53
 90
        2
102
RTVSPost2010PropOp53
 70
     1
102
RTVSPost2010Prop54
  1
strokes_ogs.tif
102
RTVSPost2010PropOp54
 70
     1
102
RTVSPost2010Prop55
280
     0
102
RTVSPost2010PropOp55
 70
     1
102
RTVSPost2010Prop56
140
1.0
102
RTVSPost2010PropOp56
 70
     1
102
RTVSPost2010Prop57
140
1.0
102
RTVSPost2010PropOp57
 70
     1
  0
XRECORD
  5
2C6
102
{ACAD_REACTORS
330
2C5
102
}
330
2C5
100
AcDbXrecord
280
     1
102
RTVSPropertyOp0
 70
     1
102
RTVSPropertyOp1
 70
     1
102
RTVSPropertyOp2
 70
     1
102
RTVSPropertyOp3
 70
     1
102
RTVSPropertyOp4
 70
     1
102
RTVSPropertyOp5
 70
     1
102
RTVSPropertyOp6
 70
     1
102
RTVSPropertyOp7
 70
     1
102
RTVSPropertyOp8
 70
     1
102
RTVSPropertyOp9
 70
     1
102
RTVSPropertyOp10
 70
     1
102
RTVSPropertyOp11
 70
     1
102
RTVSPropertyOp12
 70
     1
102
RTVSPropertyOp13
 70
     1
102
RTVSPropertyOp14
 70
     1
102
RTVSPropertyOp15
 70
     1
102
RTVSPropertyOp16
 70
     1
102
RTVSPropertyOp17
 70
     1
102
RTVSPropertyOp18
 70
     1
102
RTVSPropertyOp19
 70
     1
102
RTVSPropertyOp20
 70
     1
102
RTVSPropertyOp21
 70
     1
102
RTVSPropertyOp22
 70
     1
102
RTVSPropertyOp23
 70
     1
102
RTVSPropertyOp24
 70
     1
102
RTVSPropertyOp25
 70
     1
102
RTVSPropertyOp26
 70
     1
102
RTVSPropertyOp27
 70
     1
102
RTVSPropertyOp28
 70
     1
102
RTVSPropertyOp29
 70
     1
102
RTVSPropertyOp30
 70
     1
102
RTVSPropertyOp31
 70
     1
102
RTVSPropertyOp32
 70
     1
102
RTVSPropertyOp33
 70
     1
102
RTVSPropertyOp34
 70
     1
102
RTVSPropertyOp35
 70
     1
102
RTVSPropertyOp36
 70
     1
102
RTVSPropertyOp37
 70
     1
102
RTVSPropertyOp38
 70
     1
102
RTVSPropertyOp39
 70
     1
102
RTVSPropertyOp40
 70
     1
102
RTVSPropertyOp41
 70
     1
102
RTVSPropertyOp42
 70
     1
102
RTVSPropertyOp43
 70
     1
102
RTVSPropertyOp44
 70
     1
102
RTVSPropertyOp45
 70
     1
102
RTVSPropertyOp46
 70
     1
102
RTVSPropertyOp47
 70
     1
102
RTVSPropertyOp48
 70
     1
102
RTVSPropertyOp49
 70
     1
102
RTVSPropertyOp50
 70
     1
102
RTVSPropertyOp51
 70
     0
102
RTVSPropertyOp52
 70
     0
102
RTVSPropertyOp53
 70
     1
102
RTVSPropertyOp54
 70
     1
102
RTVSPropertyOp55
 70
     1
102
RTVSPropertyOp56
 70
     1
102
RTVSPropertyOp57
 70
     1
102
RTVSPost2010Prop28
280
     0
102
RTVSPost2010PropOp28
 70
     1
102
RTVSPost2010Prop29
280
     1
102
RTVSPost2010PropOp29
 70
     1
102
RTVSPost2010Prop30
280
     1
102
RTVSPost2010PropOp30
 70
     1
102
RTVSPost2010Prop31
280
     0
102
RTVSPost2010PropOp31
 70
     1
102
RTVSPost2010Prop32
280
     0
102
RTVSPost2010PropOp32
 70
     1
102
RTVSPost2010Prop33
280
     0
102
RTVSPost2010PropOp33
 70
     1
102
RTVSPost2010Prop34
280
     0
102
RTVSPost2010PropOp34
 70
     1
102
RTVSPost2010Prop35
280
     0
102
RTVSPost2010PropOp35
 70
     1
102
RTVSPost2010Prop36
280
     0
102
RTVSPost2010PropOp36
 70
     1
102
RTVSPost2010Prop37
 90
       50
102
RTVSPost2010PropOp37
 70
     1
102
RTVSPost2010Prop38
140
0.0
102
RTVSPost2010PropOp38
 70
     1
102
RTVSPost2010Prop39
140
1.0
102
RTVSPost2010PropOp39
 70
     1
102
RTVSPost2010Prop40
 90
        0
102
RTVSPost2010PropOp40
 70
     1
102
RTVSPost2010Prop41ColorIndex
 90
       18
102
RTVSPost2010Prop41ColorRGB
 90
        0
102
RTVSPost2010PropOp41
 70
     1
102
RTVSPost2010Prop42
 90
       50
102
RTVSPost2010PropOp42
 70
     1
102
RTVSPost2010Prop43
 90
        3
102
RTVSPost2010PropOp43
 70
     1
102
RTVSPost2010Prop44ColorIndex
 90
        5
102
RTVSPost2010Prop44ColorRGB
 90
      255
102
RTVSPost2010PropOp44
 70
     1
102
RTVSPost2010Prop45
280
     0
102
RTVSPost2010PropOp45
 70
     1
102
RTVSPost2010Prop46
 90
       50
102
RTVSPost2010PropOp46
 70
     1
102
RTVSPost2010Prop47
 90
       50
102
RTVSPost2010PropOp47
 70
     1
102
RTVSPost2010Prop48
 90
       50
102
RTVSPost2010PropOp48
 70
     1
102
RTVSPost2010Prop49
280
     0
102
RTVSPost2010PropOp49
 70
     1
102
RTVSPost2010Prop50
 90
       50
102
RTVSPost2010PropOp50
 70
     1
102
RTVSPost2010Prop51ColorIndex
 90
      256
102
RTVSPost2010Prop51ColorRGB
 90
-16777216
102
RTVSPost2010PropOp51
 70
     0
102
RTVSPost2010Prop52
140
1.0
102
RTVSPost2010PropOp52
 70
     0
102
RTVSPost2010Prop53
 90
        2
102
RTVSPost2010PropOp53
 70
     1
102
RTVSPost2010Prop54
  1
strokes_ogs.tif
102
RTVSPost2010PropOp54
 70
     1
102
RTVSPost2010Prop55
280
     0
102
RTVSPost2010PropOp55
 70
     1
102
RTVSPost2010Prop56
140
1.0
102
RTVSPost2010PropOp56
 70
     1
102
RTVSPost2010Prop57
140
1.0
102
RTVSPost2010PropOp57
 70
     1
  0
XRECORD
  5
2B6
102
{ACAD_REACTORS
330
2B5
102
}
330
2B5
100
AcDbXrecord
280
     1
102
RTVSPropertyOp0
 70
     1
102
RTVSPropertyOp1
 70
     1
102
RTVSPropertyOp2
 70
     1
102
RTVSPropertyOp3
 70
     1
102
RTVSPropertyOp4
 70
     1
102
RTVSPropertyOp5
 70
     1
102
RTVSPropertyOp6
 70
     1
102
RTVSPropertyOp7
 70
     1
102
RTVSPropertyOp8
 70
     1
102
RTVSPropertyOp9
 70
     1
102
RTVSPropertyOp10
 70
     1
102
RTVSPropertyOp11
 70
     1
102
RTVSPropertyOp12
 70
     1
102
RTVSPropertyOp13
 70
     1
102
RTVSPropertyOp14
 70
     1
102
RTVSPropertyOp15
 70
     1
102
RTVSPropertyOp16
 70
     1
102
RTVSPropertyOp17
 70
     1
102
RTVSPropertyOp18
 70
     1
102
RTVSPropertyOp19
 70
     1
102
RTVSPropertyOp20
 70
     1
102
RTVSPropertyOp21
 70
     1
102
RTVSPropertyOp22
 70
     1
102
RTVSPropertyOp23
 70
     1
102
RTVSPropertyOp24
 70
     1
102
RTVSPropertyOp25
 70
     1
102
RTVSPropertyOp26
 70
     1
102
RTVSPropertyOp27
 70
     1
102
RTVSPropertyOp28
 70
     1
102
RTVSPropertyOp29
 70
     1
102
RTVSPropertyOp30
 70
     1
102
RTVSPropertyOp31
 70
     1
102
RTVSPropertyOp32
 70
     1
102
RTVSPropertyOp33
 70
     1
102
RTVSPropertyOp34
 70
     1
102
RTVSPropertyOp35
 70
     1
102
RTVSPropertyOp36
 70
     1
102
RTVSPropertyOp37
 70
     1
102
RTVSPropertyOp38
 70
     1
102
RTVSPropertyOp39
 70
     1
102
RTVSPropertyOp40
 70
     1
102
RTVSPropertyOp41
 70
     1
102
RTVSPropertyOp42
 70
     1
102
RTVSPropertyOp43
 70
     1
102
RTVSPropertyOp44
 70
     1
102
RTVSPropertyOp45
 70
     1
102
RTVSPropertyOp46
 70
     1
102
RTVSPropertyOp47
 70
     1
102
RTVSPropertyOp48
 70
     1
102
RTVSPropertyOp49
 70
     1
102
RTVSPropertyOp50
 70
     1
102
RTVSPropertyOp51
 70
     0
102
RTVSPropertyOp52
 70
     0
102
RTVSPropertyOp53
 70
     1
102
RTVSPropertyOp54
 70
     1
102
RTVSPropertyOp55
 70
     1
102
RTVSPropertyOp56
 70
     1
102
RTVSPropertyOp57
 70
     1
102
RTVSPost2010Prop28
280
     0
102
RTVSPost2010PropOp28
 70
     1
102
RTVSPost2010Prop29
280
     1
102
RTVSPost2010PropOp29
 70
     1
102
RTVSPost2010Prop30
280
     1
102
RTVSPost2010PropOp30
 70
     1
102
RTVSPost2010Prop31
280
     0
102
RTVSPost2010PropOp31
 70
     1
102
RTVSPost2010Prop32
280
     0
102
RTVSPost2010PropOp32
 70
     1
102
RTVSPost2010Prop33
280
     0
102
RTVSPost2010PropOp33
 70
     1
102
RTVSPost2010Prop34
280
     0
102
RTVSPost2010PropOp34
 70
     1
102
RTVSPost2010Prop35
280
     0
102
RTVSPost2010PropOp35
 70
     1
102
RTVSPost2010Prop36
280
     0
102
RTVSPost2010PropOp36
 70
     1
102
RTVSPost2010Prop37
 90
       50
102
RTVSPost2010PropOp37
 70
     1
102
RTVSPost2010Prop38
140
0.0
102
RTVSPost2010PropOp38
 70
     1
102
RTVSPost2010Prop39
140
1.0
102
RTVSPost2010PropOp39
 70
     1
102
RTVSPost2010Prop40
 90
        0
102
RTVSPost2010PropOp40
 70
     1
102
RTVSPost2010Prop41ColorIndex
 90
       18
102
RTVSPost2010Prop41ColorRGB
 90
        0
102
RTVSPost2010PropOp41
 70
     1
102
RTVSPost2010Prop42
 90
       50
102
RTVSPost2010PropOp42
 70
     1
102
RTVSPost2010Prop43
 90
        3
102
RTVSPost2010PropOp43
 70
     1
102
RTVSPost2010Prop44ColorIndex
 90
        5
102
RTVSPost2010Prop44ColorRGB
 90
      255
102
RTVSPost2010PropOp44
 70
     1
102
RTVSPost2010Prop45
280
     0
102
RTVSPost2010PropOp45
 70
     1
102
RTVSPost2010Prop46
 90
       50
102
RTVSPost2010PropOp46
 70
     1
102
RTVSPost2010Prop47
 90
       50
102
RTVSPost2010PropOp47
 70
     1
102
RTVSPost2010Prop48
 90
       50
102
RTVSPost2010PropOp48
 70
     1
102
RTVSPost2010Prop49
280
     0
102
RTVSPost2010PropOp49
 70
     1
102
RTVSPost2010Prop50
 90
       50
102
RTVSPost2010PropOp50
 70
     1
102
RTVSPost2010Prop51ColorIndex
 90
      256
102
RTVSPost2010Prop51ColorRGB
 90
-16777216
102
RTVSPost2010PropOp51
 70
     0
102
RTVSPost2010Prop52
140
1.0
102
RTVSPost2010PropOp52
 70
     0
102
RTVSPost2010Prop53
 90
        2
102
RTVSPost2010PropOp53
 70
     1
102
RTVSPost2010Prop54
  1
strokes_ogs.tif
102
RTVSPost2010PropOp54
 70
     1
102
RTVSPost2010Prop55
280
     0
102
RTVSPost2010PropOp55
 70
     1
102
RTVSPost2010Prop56
140
1.0
102
RTVSPost2010PropOp56
 70
     1
102
RTVSPost2010Prop57
140
1.0
102
RTVSPost2010PropOp57
 70
     1
  0
XRECORD
  5
2A8
102
{ACAD_REACTORS
330
2A7
102
}
330
2A7
100
AcDbXrecord
280
     1
102
RTVSPropertyOp0
 70
     1
102
RTVSPropertyOp1
 70
     1
102
RTVSPropertyOp2
 70
     1
102
RTVSPropertyOp3
 70
     1
102
RTVSPropertyOp4
 70
     1
102
RTVSPropertyOp5
 70
     1
102
RTVSPropertyOp6
 70
     1
102
RTVSPropertyOp7
 70
     1
102
RTVSPropertyOp8
 70
     1
102
RTVSPropertyOp9
 70
     1
102
RTVSPropertyOp10
 70
     1
102
RTVSPropertyOp11
 70
     1
102
RTVSPropertyOp12
 70
     1
102
RTVSPropertyOp13
 70
     1
102
RTVSPropertyOp14
 70
     1
102
RTVSPropertyOp15
 70
     1
102
RTVSPropertyOp16
 70
     1
102
RTVSPropertyOp17
 70
     1
102
RTVSPropertyOp18
 70
     1
102
RTVSPropertyOp19
 70
     1
102
RTVSPropertyOp20
 70
     1
102
RTVSPropertyOp21
 70
     1
102
RTVSPropertyOp22
 70
     1
102
RTVSPropertyOp23
 70
     1
102
RTVSPropertyOp24
 70
     1
102
RTVSPropertyOp25
 70
     1
102
RTVSPropertyOp26
 70
     1
102
RTVSPropertyOp27
 70
     1
102
RTVSPropertyOp28
 70
     1
102
RTVSPropertyOp29
 70
     1
102
RTVSPropertyOp30
 70
     1
102
RTVSPropertyOp31
 70
     1
102
RTVSPropertyOp32
 70
     1
102
RTVSPropertyOp33
 70
     1
102
RTVSPropertyOp34
 70
     1
102
RTVSPropertyOp35
 70
     1
102
RTVSPropertyOp36
 70
     1
102
RTVSPropertyOp37
 70
     1
102
RTVSPropertyOp38
 70
     1
102
RTVSPropertyOp39
 70
     1
102
RTVSPropertyOp40
 70
     1
102
RTVSPropertyOp41
 70
     1
102
RTVSPropertyOp42
 70
     1
102
RTVSPropertyOp43
 70
     1
102
RTVSPropertyOp44
 70
     1
102
RTVSPropertyOp45
 70
     1
102
RTVSPropertyOp46
 70
     1
102
RTVSPropertyOp47
 70
     1
102
RTVSPropertyOp48
 70
     1
102
RTVSPropertyOp49
 70
     1
102
RTVSPropertyOp50
 70
     1
102
RTVSPropertyOp51
 70
     0
102
RTVSPropertyOp52
 70
     0
102
RTVSPropertyOp53
 70
     1
102
RTVSPropertyOp54
 70
     1
102
RTVSPropertyOp55
 70
     1
102
RTVSPropertyOp56
 70
     1
102
RTVSPropertyOp57
 70
     1
102
RTVSPost2010Prop28
280
     0
102
RTVSPost2010PropOp28
 70
     1
102
RTVSPost2010Prop29
280
     1
102
RTVSPost2010PropOp29
 70
     1
102
RTVSPost2010Prop30
280
     1
102
RTVSPost2010PropOp30
 70
     1
102
RTVSPost2010Prop31
280
     0
102
RTVSPost2010PropOp31
 70
     1
102
RTVSPost2010Prop32
280
     0
102
RTVSPost2010PropOp32
 70
     1
102
RTVSPost2010Prop33
280
     0
102
RTVSPost2010PropOp33
 70
     1
102
RTVSPost2010Prop34
280
     0
102
RTVSPost2010PropOp34
 70
     1
102
RTVSPost2010Prop35
280
     0
102
RTVSPost2010PropOp35
 70
     1
102
RTVSPost2010Prop36
280
     0
102
RTVSPost2010PropOp36
 70
     1
102
RTVSPost2010Prop37
 90
       50
102
RTVSPost2010PropOp37
 70
     1
102
RTVSPost2010Prop38
140
0.0
102
RTVSPost2010PropOp38
 70
     1
102
RTVSPost2010Prop39
140
1.0
102
RTVSPost2010PropOp39
 70
     1
102
RTVSPost2010Prop40
 90
        0
102
RTVSPost2010PropOp40
 70
     1
102
RTVSPost2010Prop41ColorIndex
 90
       18
102
RTVSPost2010Prop41ColorRGB
 90
        0
102
RTVSPost2010PropOp41
 70
     1
102
RTVSPost2010Prop42
 90
       50
102
RTVSPost2010PropOp42
 70
     1
102
RTVSPost2010Prop43
 90
        3
102
RTVSPost2010PropOp43
 70
     1
102
RTVSPost2010Prop44ColorIndex
 90
        5
102
RTVSPost2010Prop44ColorRGB
 90
      255
102
RTVSPost2010PropOp44
 70
     1
102
RTVSPost2010Prop45
280
     0
102
RTVSPost2010PropOp45
 70
     1
102
RTVSPost2010Prop46
 90
       50
102
RTVSPost2010PropOp46
 70
     1
102
RTVSPost2010Prop47
 90
       50
102
RTVSPost2010PropOp47
 70
     1
102
RTVSPost2010Prop48
 90
       50
102
RTVSPost2010PropOp48
 70
     1
102
RTVSPost2010Prop49
280
     0
102
RTVSPost2010PropOp49
 70
     1
102
RTVSPost2010Prop50
 90
       50
102
RTVSPost2010PropOp50
 70
     1
102
RTVSPost2010Prop51ColorIndex
 90
      256
102
RTVSPost2010Prop51ColorRGB
 90
-16777216
102
RTVSPost2010PropOp51
 70
     0
102
RTVSPost2010Prop52
140
1.0
102
RTVSPost2010PropOp52
 70
     0
102
RTVSPost2010Prop53
 90
        2
102
RTVSPost2010PropOp53
 70
     1
102
RTVSPost2010Prop54
  1
strokes_ogs.tif
102
RTVSPost2010PropOp54
 70
     1
102
RTVSPost2010Prop55
280
     0
102
RTVSPost2010PropOp55
 70
     1
102
RTVSPost2010Prop56
140
1.0
102
RTVSPost2010PropOp56
 70
     1
102
RTVSPost2010Prop57
140
1.0
102
RTVSPost2010PropOp57
 70
     1
  0
XRECORD
  5
2C8
102
{ACAD_REACTORS
330
2C7
102
}
330
2C7
100
AcDbXrecord
280
     1
102
RTVSPropertyOp0
 70
     1
102
RTVSPropertyOp1
 70
     1
102
RTVSPropertyOp2
 70
     1
102
RTVSPropertyOp3
 70
     1
102
RTVSPropertyOp4
 70
     1
102
RTVSPropertyOp5
 70
     1
102
RTVSPropertyOp6
 70
     1
102
RTVSPropertyOp7
 70
     1
102
RTVSPropertyOp8
 70
     1
102
RTVSPropertyOp9
 70
     1
102
RTVSPropertyOp10
 70
     1
102
RTVSPropertyOp11
 70
     1
102
RTVSPropertyOp12
 70
     1
102
RTVSPropertyOp13
 70
     1
102
RTVSPropertyOp14
 70
     1
102
RTVSPropertyOp15
 70
     1
102
RTVSPropertyOp16
 70
     1
102
RTVSPropertyOp17
 70
     1
102
RTVSPropertyOp18
 70
     1
102
RTVSPropertyOp19
 70
     1
102
RTVSPropertyOp20
 70
     1
102
RTVSPropertyOp21
 70
     1
102
RTVSPropertyOp22
 70
     1
102
RTVSPropertyOp23
 70
     1
102
RTVSPropertyOp24
 70
     1
102
RTVSPropertyOp25
 70
     1
102
RTVSPropertyOp26
 70
     1
102
RTVSPropertyOp27
 70
     1
102
RTVSPropertyOp28
 70
     1
102
RTVSPropertyOp29
 70
     1
102
RTVSPropertyOp30
 70
     1
102
RTVSPropertyOp31
 70
     1
102
RTVSPropertyOp32
 70
     1
102
RTVSPropertyOp33
 70
     1
102
RTVSPropertyOp34
 70
     1
102
RTVSPropertyOp35
 70
     1
102
RTVSPropertyOp36
 70
     1
102
RTVSPropertyOp37
 70
     1
102
RTVSPropertyOp38
 70
     1
102
RTVSPropertyOp39
 70
     1
102
RTVSPropertyOp40
 70
     1
102
RTVSPropertyOp41
 70
     1
102
RTVSPropertyOp42
 70
     1
102
RTVSPropertyOp43
 70
     1
102
RTVSPropertyOp44
 70
     1
102
RTVSPropertyOp45
 70
     1
102
RTVSPropertyOp46
 70
     1
102
RTVSPropertyOp47
 70
     1
102
RTVSPropertyOp48
 70
     1
102
RTVSPropertyOp49
 70
     1
102
RTVSPropertyOp50
 70
     1
102
RTVSPropertyOp51
 70
     0
102
RTVSPropertyOp52
 70
     0
102
RTVSPropertyOp53
 70
     1
102
RTVSPropertyOp54
 70
     1
102
RTVSPropertyOp55
 70
     1
102
RTVSPropertyOp56
 70
     1
102
RTVSPropertyOp57
 70
     1
102
RTVSPost2010Prop28
280
     0
102
RTVSPost2010PropOp28
 70
     1
102
RTVSPost2010Prop29
280
     1
102
RTVSPost2010PropOp29
 70
     1
102
RTVSPost2010Prop30
280
     1
102
RTVSPost2010PropOp30
 70
     1
102
RTVSPost2010Prop31
280
     0
102
RTVSPost2010PropOp31
 70
     1
102
RTVSPost2010Prop32
280
     0
102
RTVSPost2010PropOp32
 70
     1
102
RTVSPost2010Prop33
280
     0
102
RTVSPost2010PropOp33
 70
     1
102
RTVSPost2010Prop34
280
     0
102
RTVSPost2010PropOp34
 70
     1
102
RTVSPost2010Prop35
280
     0
102
RTVSPost2010PropOp35
 70
     1
102
RTVSPost2010Prop36
280
     0
102
RTVSPost2010PropOp36
 70
     1
102
RTVSPost2010Prop37
 90
       50
102
RTVSPost2010PropOp37
 70
     1
102
RTVSPost2010Prop38
140
0.0
102
RTVSPost2010PropOp38
 70
     1
102
RTVSPost2010Prop39
140
1.0
102
RTVSPost2010PropOp39
 70
     1
102
RTVSPost2010Prop40
 90
        0
102
RTVSPost2010PropOp40
 70
     1
102
RTVSPost2010Prop41ColorIndex
 90
       18
102
RTVSPost2010Prop41ColorRGB
 90
        0
102
RTVSPost2010PropOp41
 70
     1
102
RTVSPost2010Prop42
 90
       50
102
RTVSPost2010PropOp42
 70
     1
102
RTVSPost2010Prop43
 90
        3
102
RTVSPost2010PropOp43
 70
     1
102
RTVSPost2010Prop44ColorIndex
 90
        5
102
RTVSPost2010Prop44ColorRGB
 90
      255
102
RTVSPost2010PropOp44
 70
     1
102
RTVSPost2010Prop45
280
     0
102
RTVSPost2010PropOp45
 70
     1
102
RTVSPost2010Prop46
 90
       50
102
RTVSPost2010PropOp46
 70
     1
102
RTVSPost2010Prop47
 90
       50
102
RTVSPost2010PropOp47
 70
     1
102
RTVSPost2010Prop48
 90
       50
102
RTVSPost2010PropOp48
 70
     1
102
RTVSPost2010Prop49
280
     0
102
RTVSPost2010PropOp49
 70
     1
102
RTVSPost2010Prop50
 90
       50
102
RTVSPost2010PropOp50
 70
     1
102
RTVSPost2010Prop51ColorIndex
 90
      256
102
RTVSPost2010Prop51ColorRGB
 90
-16777216
102
RTVSPost2010PropOp51
 70
     0
102
RTVSPost2010Prop52
140
1.0
102
RTVSPost2010PropOp52
 70
     0
102
RTVSPost2010Prop53
 90
        2
102
RTVSPost2010PropOp53
 70
     1
102
RTVSPost2010Prop54
  1
strokes_ogs.tif
102
RTVSPost2010PropOp54
 70
     1
102
RTVSPost2010Prop55
280
     0
102
RTVSPost2010PropOp55
 70
     1
102
RTVSPost2010Prop56
140
1.0
102
RTVSPost2010PropOp56
 70
     1
102
RTVSPost2010Prop57
140
1.0
102
RTVSPost2010PropOp57
 70
     1
  0
ENDSEC
  0
EOF
